Oops, an error
Loading. Please wait.

February Tab

version 1
version 1

Whole song

Interactive

by Mineral
4,269 views 6 this week
2 commentsread comments
1 2 3 4 5
x 4
add to favorites
launch autoscroll
font size
0
reset
how to read this tab
guitar tuner
×
Best way to learn
"February"
Autoscroll
slow
fast
+/-
esc
set tempo
stop
Author
-------------------------------------------------------------------------------
                             FEBRUARY - Mineral
-------------------------------------------------------------------------------
Tabbed by: kipflip
Email: kipconway@hotmail.com

Tuning: Standard


I could only get one of the guitars for most of the middle parts but it all sounds right.

Guitar 1
e|--------------------------------------------------------------|
B|--------------------------------------------------------------|
G|--------4h5---5p4---------4h5---5p4---------4h5-----5p4-------|
D|---5-----------------5-----------------5----------------------|
A|-3---3------3------2---2------2-------------------------------|
E|-------------------------------------5---5-------5------------|(x4)

Guitar 2
e|--------------------------------------------------------------|
B|--------------------------------------------------------------|
G|--------------------------------------5-5-5-5-5-5-5-5---------|
D|--------------------------------------5-5-5-5-5-5-5-5---------|
A|--------------------------------------3-3-3-3-3-3-3-3---------|
E|--------------------------------------------------------------|

Guitar 1   I'm not sure how many notes are played. This is just a general idea.
e|----------------------------------------------------------------|
B|----------------------------------------------------------------|
G|----------------------------------------------------------------|
D|-10/12-12--12-10-9-999910p9-9-10/12-10-9999999-141414141210/12--|
A|----------------------------------------------------------------|
E|----------------------------------------------------------------|

e|-------------------------------------------------------------------------------|
B|-------------------------------------------------------------------------------|
G|-------------------------------------------------------------------------12----|
D|-19-17\16-16-17-12-121212121091099999\777/99999/121212\99999\777/99999-12--12--|
A|-------------------------------------------------------------------------------|
E|-------------------------------------------------------------------------------|

Guitar 1
e|------------------------|
B|------------------------|
G|---7----7----4----------|
D|---7-x8-7-x8-4-x8-7-----| 
A|---5----4----2----7-x8--|
E|------------------5-----|(x4)

Guitar 1
e|---------------------------------------------------------------|
B|---------------------------------------------------------------|
G|-----------14------14-12-9/11-11------11-11-11-11-121211-11----|
D|-------12------12------------------x3--------------------------|  
A|---------12------12--------------------------------------------|
E|-9/10--------10(bass plays the parts on this string I think)---|(x2)

                  (on every 4th time, 15 plays all the way through)
Guitar 1                            \/
e|--------------------------|---------------------------------------|
B|--------------------------|-15151515151515151514141414141414--x16-|
G|-11-11-1112121211-11-11---|---------------------------------------|
D|--------------------------|---------------------------------------|
A|--------------------------|---------------------------------------|
E|--------------------------|---------------------------------------|
                                        /\
                              Played at same time
Guitar 2                                \/
e|-----------------------------------------------------------|
B|-----------------------------------------------------------|
G|------------------12-------11-----7------------------------|
D|------------------10--x8---9--x8--5--x16-------------------|
A|------------------10-------9------5------------------------|
E|-----------------------------------------------------------|(x4)

Guitar 1
e|----------------------------------------------------------|
B|----------------------------------------------------------|
G|--19------18--------19------21------19-------14-----------|
D|-----x8------x16-------x8------x9------x7-------x16-------|  
A|--17------16--------17------19------17-------12-----------|
E|----------------------------------------------------------|(x4)

Guitar 2 listen for when to play this part
e|--------------------------------------------------------------|
B|--------------------------------------------------------------| (part in ""
G|--------------------------------------------------------------| is left out
D|--14-17-16-14---14-16-17-16----14-17-16-14----"14-16-17-16"---| on the last
A|--------------------------------------------------------------| time)
E|--------------------------------------------------------------|(x2)

Guitar 2
e|----------------------------------------------------------|
B|----------------------------------------------------------|
G|--19------19------16------14------------------------------|
D|--17-x16--16-x16--14-x16--12-x16--------------------------| 
A|--17------16------14------12------------------------------|
E|----------------------------------------------------------|(x2)


************************************

| /  slide up
| \  slide down
| h  hammer-on
| p  pull-off
| x  number of times played

************************************
Suggest correction
comments
print report bad tab
2 comments total.
0 reply
GuilleDCFC 31 Feb 13, 2011 09:08 PM

I tried playing this along with the original recording and its not in standard tuning :(.

I tried with half step down tunning but it isnt either.

But you your tab is good :)

guest
You may want to rate the tab now too:
select rating
Wanna post a correction for this tab? Suggest correction