Oops, an error
Loading. Please wait.

Love Letter Typewriter Bass Tab

516 views 3 this week
no commentswrite comment
1 2 3 4 5
3 more votes to show rating
add to favorites
launch autoscroll
font size
0
reset
guitar tuner
Autoscroll
slow
fast
+/-
esc
set tempo
stop
Help us to improve Ultimate-Guitar.com Take our survey!
×
Author
-------------------------------------------------------------------------------
			LOVELETTERTYPEWRITER - Mineral
-------------------------------------------------------------------------------
Artist: Mineral
Album: End Serenading
Song: Love Letter Typewriter
Tabbed by: Alex
Email: theonethird, gmail

Tuning: EADG
Tempo: 65bpm


Intro

TACET


Verse 1 (Summer unfolded...)

TACET


Instrumental break

G|----------------------------------|
D|----------------------------------|
A|-0---------------3----------------| x2
E|----------------------------------|


Verse 2 (There glowing...)

G|------------------------------------|
D|-3-2-3-5---------3-5-3/10-----------|
A|------------------------------------| x8
E|------------------------------------|


Verse 3 (Will you ever know...)

G|------------------------------------------------------------|
D|------------------------------------------------------------|
A|-0--------------3-------------------------------------------|
E|-------------------------------1--------------3-------------|

G|---------------------------------------------------------------|
D|---------------------------------------------------------------|
A|-0--------------3----------------------------------------------|
E|-------------------------------1--------------3-----3-3-3-3-3--|

G|----------------------------------|
D|----------------------------------|
A|-0-0-0---------3-3-3-3-3-3-3-3-3--| x3
E|-------1-1-1-1--------------------|

G|-------------------|
D|-------------------|
A|-0-0-0---------3---|
E|-------1-1-1-1-----|



************************************

| /  slide up
| \  slide down
| h  hammer-on
| p  pull-off
| ~  vibrato
| +  harmonic
| x  Mute note

************************************
Suggest correction
Give kudos to tab author, rate the tab!
1 2 3 4 5
comments
print report bad tab
guest
You may want to rate the tab now too:
select rating
Wanna post a correction for this tab? Suggest correction