Oops, an error
Loading. Please wait.

Big Blue tab

2,812 views 3 this week
2 commentsread comments
1 2 3 4 5
2 more votes to show rating
add to favorites
×
Save as Personal and add changes to this tab that will be seen only by you. Learn more ›
×
You can save this tab as Personal to edit and correct it or add notes. All changes will be seen only by you. Learn more »
launch autoscroll
font size
0
reset
how to read this tab
guitar tuner
edit
Autoscroll
slow
fast
+/-
esc
set tempo
stop
Author
Difficulty
-------------------------------------------------------------------------------
                             Big Blue - The Minibosses
-------------------------------------------------------------------------------
Tabbed by: A. Nonymous
Email: tdsr93@hotmail.com
Tuning: Standard (eBGDAE)

[READ THIS FIRST]
Note: There are a couple of versions from Big Blue... You got the one from the Super 
Bros Melee game, one performed on a piano... and some more. This is the one which starts 
a lot of drums. Make sure you've got the correct song, from The Minibosses (yeah that's their name)
IF you see this song unfinished, I'll update it later. I WON'T quit before finishing the 
thing
OK! Here we go!

[INTRO]
e|---------------------------------------------------------------------------|
B|---------------------------------------------------------------------------|
G|---------------------------------------------------------------------------|
D|----9------------9----7------------------7------------7----9---------------| [ X 5 ]
A|----9------------9----7------------------7------------7----9---------------|
E|----7------------7----5------------------5------------5----7---------------|

e|---------------------------------------------------------------------------|
B|---------------------------------------------------------------------------|
G|---------------------------------------------------------------------------|
D|----9------------9----7------------------7------------7----4---------------|
A|----9------------9----7------------------7------------7----4---------------|
E|----7------------7----5------------------5------------5----2---------------|

[SOLO 1]
e|-----------------------------------------------------------------------|
B|--7--5-----------------------------------------------------------------|
G|-------7--6-7-------6--------------------------------------------------|
D|-----------------------------------------------------------------------|
A|-----------------------------------------------------------------------|
E|-----------------------------------------------------------------------|

            
            
Suggest correction
Creating personal tab
Creating personal tab
You can edit any tab online and save it as your Personal.

You can edit, replace or remove any tab part or add personal notes – all changes will be seen only by you.

Personal tabs can be accessed anytime from any device, even offline.
Learn more »
Give kudos to tab author, rate the tab!
1 2 3 4 5
comments
print report bad tab
2 comments total.
0 reply
Shiruyumi 10 Apr 15, 2007 04:00 PM

This isn't a song my The Minibosses, they only do NES game music.

0 reply
loser-man 10 Dec 31, 2007 06:35 AM

I don't know about this version, but don't they have a riff in there at the end of the intro riff? something like
this:
e|------------------------------------------------------------------
B|-----------------------------------------
-------------------------
G|------------------------------------------------------------------
D|----9------------9---
-7-----------------7-------7----9------------
A|----9------------9----7-----------------7-------7----9-----7-9-7---
E|
----7------------7----5-----------------5-------5----7--7-9-----9-7

I never heard this version, but I know some
versions have it.

guest
You may want to rate the tab now too:
select rating
Wanna post a correction for this tab? Suggest correction