Oops, an error
Loading. Please wait.

Ninja Gaiden intro tab

version 1
version 1

Intro

Interactive

9,151 views 3 this week
2 commentsread comments
1 2 3 4 5
x 4
add to favorites
×
Save as Personal and add changes to this tab that will be seen only by you. Learn more ›
×
You can save this tab as Personal to edit and correct it or add notes. All changes will be seen only by you. Learn more »
launch autoscroll
font size
0
reset
how to read this tab
guitar tuner
edit
Autoscroll
slow
fast
+/-
esc
set tempo
stop
Difficulty
Ninja Gaiden Intro. 
by Minibosses
                                                               __
E-----7-6-------------------9-77-66--------6----------------     |
B---------------7---7-9~--9----------99--7---9--7-------7---     |
G---8-----8~~--8---8-------------------------------8~~-8----     |
D-----------------------------------------------------------     |
A-----------------------------------------------------------     |
E-----------------------------------------------------------     |
                                                               Reapt 2x
E-------------------------6h7p6----------6------------------     |
B-----------------------9-------77---7-----9~~--------------     |
G--9-8-66~~-6-9-8-----8------------8---8--------------------     |
D----------------9~~9---------------------------------------     |
A-----------------------------------------------------------     |
E-----------------------------------------------------------   __|

E-----------------------------------------------------------   __
B---9--11-12-14-11,11----11-9-7h9-11-9~~-9-11-9-8~~-8-9-11--     |
G-----------------------------------------------------------     |
D-----------------------------------------------------------     |
A-----------------------------------------------------------     |
E----------------------------------------------------------- 
                                                               Repeat 3x
E-----------------------------------------------------------     |
B--11-12-11-9~~----------9(7x)-11(7x)-12(7x)----------------     |
G-----------------------------------------------------------     |
D-----------------------------------------------------------     |
A-----------------------------------------------------------     |
E-----------------------------------------------------------   __|

E-----------------------------------------------------------   __
B-----------------------------------------------------------     |
G--12p11h12p11h12p11h12p11h12-10p9h10p9h10p9h10p9h10p9h10---     |
D-----------------------------------------------------------   Repeat 2x
A-----------------------------------------------------------     |
E-----------------------------------------------------------   __|



This is my first tab so give me some slack 
I think this is pretty accurate
Im still working on this ......MiniBOSSES RULE
Just email me.. 

            
            
Suggest correction
Creating personal tab
Creating personal tab
You can edit any tab online and save it as your Personal.

You can edit, replace or remove any tab part or add personal notes – all changes will be seen only by you.

Personal tabs can be accessed anytime from any device, even offline.
Learn more »
comments
print report bad tab
2 comments total.
0 reply
BlaqIc3 41 Jul 07, 2006 05:39 PM

Hey To all those who are looking at this Tab. I made it.. so give me a heads up on what you think by PM me or emailing me at Blaqic3@gmail.com Tell me if there is something wrong.
Thank you.

0 reply
Enter Shiner 10 Mar 12, 2009 09:11 AM

Brilliant tab buddy, just maybe needs finishing :)

guest
Wanna post a correction for this tab? Suggest correction