Oops, an error
Loading. Please wait.

Bevo Bass Tab

version 1
version 1

Whole song

Interactive

3,079 views 3 this week
no commentswrite comment
1 2 3 4 5
please rate
add to favorites
launch autoscroll
font size
0
reset
guitar tuner
Autoscroll
slow
fast
+/-
esc
set tempo
stop
Help us to improve Ultimate-Guitar.com Take our survey!
×
Author
Difficulty
intermediate
Post Guitar Intro
G|-----------------------|
D|--2-2--------2-2-------|
A|-----0-3-3-0----0-3-3-0|
E|-----------------------|

G|--------------------|
D|-2-0----2-0---------|
A|----3-------33------|
E|-----0--------------|

Verse 1
G|-----------------------------------|
D|-----------------------------------|
A|-2-222222h5-222222h5-2222h5--------|
E|----------------------------55-555-|

Verse 2
G|-----------------------------------|
D|-2-222222h5-222222h5-2222h5--------|
A|----------------------------55-555-|
E|-----------------------------------|


First refrain
G|-----------------------------------|
D|-----------------------------------|
A|---555555--------------------------|
E|-----------------------------------|

Post refrain
G|-------------------------------------|
D|----------22-00----------------------|
A|---33-22-----------------------------|
E|-------------------------------------|

Second refrain
G|------------------|-------------------------|
D|------------------|-------------------------|
A|----33-22----55---|--33-22----55--33333333--|
E|----------00------|--------00---------------|

Bass solo
G|-----------------------------------------------|
D|-----------------------------------------------|
A|---------------------333-33--------------------|
E|--333-3--111-1-000-0---------------------------|



Simonetor--- ciopolo1@hotmail.it
Suggest correction
Give kudos to tab author, rate the tab!
1 2 3 4 5
comments
print report bad tab
guest
You may want to rate the tab now too:
select rating
Wanna post a correction for this tab? Suggest correction