Oops, an error
Loading. Please wait.

Bevo Tab

version 2
version 2

Whole song

Interactive

3,802 views 18 this week
no commentswrite comment
1 2 3 4 5
x 6
add to favorites
launch autoscroll
font size
0
reset
how to read this tab
guitar tuner
Autoscroll
slow
fast
+/-
esc
set tempo
stop
Help us to improve Ultimate-Guitar.com Take our survey!
×
Author
Difficulty
intermediate
-------------------------------------------------------------------------------
                             BEVO - MINISTRI
-------------------------------------------------------------------------------
Tabbed by: Alexbacio
Email:iron.ox@hotmail.it

Tuning:EADGBE


INTRO   MAntenere col palmo prima del power-chord -- keeping with the palm before power-chord

e|---------------------------------------------------------------------------|
B|---------------------------------------------------------------------------|
G|---------------7---------------7------------7------------------------------|
D|---------------7---------------7------------7------------------------------|     x3
A|-------------------------------------------------------7-7-7-7-7-7-7-------|
E|-7-7-7-7-7-7-7---7-7-7-7-7-7-7------7-7-7-7----7-7-----5-5-5-5-5-5-5-------|


Riff

e|-----------------------------------------------|    |----------------------------|
B|-----------------------------------------------|    |----0-----------------------|
G|--9-9-0-5-5-5-9-9-5-5---9-7-5-----9-7--7-5-----| x2 |----0-----------------------|     
D|--9-9-0-5-5-0-9-9-5-5---9-7-5-2---9-7--7-5-----|    |----0-----------------------|
A|--7-7-0-3-3-0-7-7-3-3---7-5-3-2---7-5--5-3-----|    |----0-----------------------|
E|------------------------------0----------------|    |----------------------------|

 STROFA/VERSE
  

e|---------------------------------------------------------------------------|
B|---------------------------------------------------------------------------|
G|---------------7---------------7------------7------------------------------|     x2
D|---------------7---------------7------------7------------------------------|     
A|-------------------------------------------------------7-7-7-7-7-7-7-------|
E|-7-7-7-7-7-7-7---7-7-7-7-7-7-7------7-7-7-7----7-7-----5-5-5-5-5-5-5-------|




e|---------------------------------------------------------------------------|
B|---------------8----------------8----------8-------------------------------|
G|---------------7----------------7----------7-------------------------------|
D|-------------------------------------------------------5-5-5-5-5-5-5-------|      x2    
A|-7-7-7-7-7-7-7----7-7-7-7-7-7-7-----7-7-7-7----7-7-----7-7-7-7-7-7-7-------|
E|---------------------------------------------------------------------------|


...PER DIMENTICARE!! BEVO BEVO BEVO!...
e|---------------------------------------------------------------------------|
B|---------------------------------------------------------------------------|
G|---------------------------------------------------------------------------|
D|-5-5-5-5-5-5-5-5------5-5-5-5-5-5-5-5------5-5-5-5-5-5-5-5--5-5-5-5-5-5-5-5|
A|-7-7-7-7-7-7-7-7------7-7-7-7-7-7-7-7------7-7-7-7-7-7-7-7--7-7-7-7-7-7-7-7|
E|---------------------------------------------------------------------------|

...perchè non ho sete... perchè mi dai da bere
e|---------------------------------------------------------------------------|
B|---------------------------------------------------------------------------|
G|--7--5--4-4/-9-9--7--5-4-4/-9-9-7--5--4-4/-9-9--7--5--4-4--9---------------|
D|--7--5--4-4/-9-9--7--5-4-4/-9-9-7--5--4-4/-9-9--7--5--4-4--9---------------|
A|--5--3--2-2/-7-7--5--3-2-2/-7-7-5--3--2-2/-7-7--5--3--2-2/-7---------------|
E|---------------------------------------------------------------------------|


 quando mi diverto... quando non mi diverto
e|---------------------------------------------------------------------------|
B|---------------------------------------------------------------------------|
G|-5-5-4-4------7-7-5-5-4-4------7-7-5-5-4-4------7-7-5-5-4-4------7-7-------|
D|-5-5-4-4-2-2/-7-7-5-5-4-4-2-2/-7-7-5-5-4-4-2-2/-7-7-5-5-4-4-2-2/-7-7-------|
A|-3-3-2-2-2-2/-5-5-3-3-2-2-2-2/-5-5-3-3-2-2-2-2/-5-5-3-3-2-2-2-2/-5-5-------|
E|---------0-0--------------0-0--------------0-0--------------0-0------------|

e|---------------------------------------------------------------------------|
B|---------------------------------------------------------------------------|
G|-5----5--5--5--5--5--5--5--5--5-5-5----------------------------------------|
D|-5----5--5--5--5--5--5--5--5--5-5-5----------------------------------------|
A|-3----3--3--3--3--3--3--3--3--3-3-3----------------------------------------|
E|---------------------------------------------------------------------------|

RIFF



e|-----------------------------------------------|    |----------------------------|
B|-----------------------------------------------|    |----0-----------------------|
G|--9-9-0-5-5-5-9-9-5-5---9-7-5-----9-7--7-5-----| x2 |----0-----------------------|     
D|--9-9-0-5-5-0-9-9-5-5---9-7-5-2---9-7--7-5-----|    |----0-----------------------|
A|--7-7-0-3-3-0-7-7-3-3---7-5-3-2---7-5--5-3-----|    |----0-----------------------|
E|------------------------------0----------------|    |----------------------------|

STROFA/VERSE

e|---------------------------------------------------------------------------|
B|---------------------------------------------------------------------------|
G|---------------7---------------7------------7------------------------------|     x2
D|---------------7---------------7------------7------------------------------|     
A|-------------------------------------------------------7-7-7-7-7-7-7-------|
E|-7-7-7-7-7-7-7---7-7-7-7-7-7-7------7-7-7-7----7-7-----5-5-5-5-5-5-5-------|

Per conoscer gente....

e|---------------------------------------------------------------------------|
B|---------------------------------------------------------------------------|
G|---------------------------------------------------------------------------|
D|-5-5-5-5-5-5-5-5------5-5-5-5-5-5-5-5------5-5-5-5-5-5-5-5--5-5-5-5-5-5-5-5|
A|-7-7-7-7-7-7-7-7------7-7-7-7-7-7-7-7------7-7-7-7-7-7-7-7--7-7-7-7-7-7-7-7|
E|---------------------------------------------------------------------------|


e|---------------------------------------------------------------------------|
B|---------------------------------------------------------------------------|
G|--7--5--4-4/-9-9--7--5-4-4/-9-9-7--5--4-4/-9-9--7--5--4-4--9---------------|
D|--7--5--4-4/-9-9--7--5-4-4/-9-9-7--5--4-4/-9-9--7--5--4-4--9---------------|
A|--5--3--2-2/-7-7--5--3-2-2/-7-7-5--3--2-2/-7-7--5--3--2-2/-7---------------|
E|---------------------------------------------------------------------------|

 quando mi diverto... quando non mi diverto
e|---------------------------------------------------------------------------|
B|---------------------------------------------------------------------------|
G|-5-5-4-4------7-7-5-5-4-4------7-7-5-5-4-4------7-7-5-5-4-4------7-7-------|
D|-5-5-4-4-2-2/-7-7-5-5-4-4-2-2/-7-7-5-5-4-4-2-2/-7-7-5-5-4-4-2-2/-7-7-------|
A|-3-3-2-2-2-2/-5-5-3-3-2-2-2-2/-5-5-3-3-2-2-2-2/-5-5-3-3-2-2-2-2/-5-5-------|
E|---------0-0--------------0-0--------------0-0--------------0-0------------|



e|---------------------------------------------------------------------------|
B|---------------------------------------------------------------------------|
G|-5----5--5--5--5--5--5--5--5--5-5-5----------------------------------------|
D|-5----5--5--5--5--5--5--5--5--5-5-5----------------------------------------|
A|-3----3--3--3--3--3--3--3--3--3-3-3----------------------------------------|
E|---------------------------------------------------------------------------|

MIDLEY.. E POI CI SEI TU KE NON BEVI MAI


e|---------------------------------------------------------------------------|
B|---------------------------------------------------------------------------|
G|---------------------------------------------------------------------------|
D|---------------------------------------------------------------------------|
A|-------------------------------------------------3-3-3-3-3-3-3-------------|
E|-3-3-3-3-3-3-3---1-1-1-1-1-1-1-1---0-0-0-0-0-0-0---------------------------|


Palm MUted

e|---------------------------------------------------------------------------|
B|---------------------------------------------------------------------------|
G|---------------------------------------------------5-5-5-5-5-5-------------|
D|-5-5-5-5-5-5-5---3-3-3-3-3-3-3-3---2-2-2-2-2-2-2---5-5-5-5-5-5-------------|     x3
A|-5-5-5-5-5-5-5---3-3-3-3-3-3-3-3---2-2-2-2-2-2-2---3-3-3-3-3-3-------------|
E|-3-3-3-3-3-3-3---1-1-1-1-1-1-1-1---0-0-0-0-0-0-0---------------------------|



e|---------------------------------------------------------------------------|
B|---------------------------------------------------------------------------|
G|---------------------------------7-----------------------------------------|
D|----2-2-2-2-2----3-3---5---------7-----------------------------------------|
A|----2-2-2-2-2----3-3---5---------5-----------------------------------------|
E|----0-0-0-0-0----1-1---3---------------------------------------------------|



PER FARMI CORAGGIO



e|---------------------------------------------------------------------------|
B|---------------------------------------------------------------------------|
G|---------------------------------------------------------------------------|
D|-5-5-5-5-5-5-5-5------5-5-5-5-5-5-5-5------5-5-5-5-5-5-5-5--5-5-5-5-5-5-5-5|
A|-7-7-7-7-7-7-7-7------7-7-7-7-7-7-7-7------7-7-7-7-7-7-7-7--7-7-7-7-7-7-7-7|
E|---------------------------------------------------------------------------|


QUANDO MI DIVERTO...



e|---------------------------------------------------------------------------|
B|---------------------------------------------------------------------------|
G|-5-5-4-4------7-7-5-5-4-4------7-7-5-5-4-4------7-7-5-5-4-4------7-7-------|
D|-5-5-4-4-2-2/-7-7-5-5-4-4-2-2/-7-7-5-5-4-4-2-2/-7-7-5-5-4-4-2-2/-7-7-------|
A|-3-3-2-2-2-2/-5-5-3-3-2-2-2-2/-5-5-3-3-2-2-2-2/-5-5-3-3-2-2-2-2/-5-5-------|
E|---------0-0--------------0-0--------------0-0--------------0-0------------|




e|---------------------------------------------------------------------------|
B|---------------------------------------------------------------------------|
G|-5----5--5--5--5--5--5--5--5--5-5-5----------------------------------------|
D|-5----5--5--5--5--5--5--5--5--5-5-5----------------------------------------|
A|-3----3--3--3--3--3--3--3--3--3-3-3----------------------------------------|
E|---------------------------------------------------------------------------|



FINE




e|-----------------------------------------------|    
B|-----------------------------------------------|    
G|--9-9-0-5-5-5-9-9-5-5---9-7-5-----9-7--7-5-----| x2    
D|--9-9-0-5-5-0-9-9-5-5---9-7-5-2---9-7--7-5-----|    
A|--7-7-0-3-3-0-7-7-3-3---7-5-3-2---7-5--5-3-----|   
E|------------------------------0----------------|



kredo sia esatta al 100% spero di essere stato utile dato ke nn ce sono


| /   slide up
| \   slide down
| h   hammer-on
| p   pull-off
| ~   vibrato
| +   harmonic
| x   Mute note
| b   Bend
| pb  Pre-bend
| br  Bend release
| pbr Pre-bend release
| brb Bend release bend

************************************
Suggest correction
comments
print report bad tab
guest
You may want to rate the tab now too:
select rating
Wanna post a correction for this tab? Suggest correction