Oops, an error
Loading. Please wait.

Diritto Al Tetto Tab

7,603 views 21 this week
2 commentsread comments
1 2 3 4 5
please rate
add to favorites
launch autoscroll
font size
0
reset
how to read this tab
guitar tuner
Tab Pro tools
  • play this tab
  • loop segment
  • change instrument
  • show fretboard
  • metronome
×
Best way to learn
"Diritto Al Tetto"
Autoscroll
slow
fast
+/-
esc
set tempo
stop
Contributor
Difficulty
novice
Song: Diritto Al Tetto
Band: Ministri
Album: La Piazza EP /  Tempi Bui
Official Site: http://www.myspace.com/ministri

This is my first tab,I think it's 90% right
If there's something wrong please contact me at predator-alex@hotmail.it

(sorry for my English)

E' la mia prima tab, credo sia giusta al 90%
Se c'è qualche errore ditemelo contattandomi a predator-alex@hotmail.it


Tuning: EADGBe

-INTRO

part1             part2
e-----------      e-----------|
B-----------      B------2----|
G------2----      G------2----|
D-4-444-4--- x4   D-4-44424---| x8
A-----------      A-4-444-4---|
E-----------      E-2-222-2---|

-VERSE 1 AND VERSE 2

1. Lasciami per terra o trovami una casa, mica te l'ho chiesto io di fare qui una
2. Case domiciliari sulle panchine, anche su quelle dove non ci si può
e-----------|
B-----------|
G------2----|
D-4-444-4---| x4
A-----------|
E-----------|

1. strada. Metà dei soldi va per i recinti
2. sdraiare. Diritto al tetto e non avere un tetto
e-----------|
B-----------|
G-----------|        This may be wrong / questo forse è sbagliato
D------6----| x2
A-7-777-7---|
E-----------|

1. L'altra metà per ridipingerli
2. Diritto al tetto e non avere un tetto, diritto al tetto e non averlo
e-----------|
B-----------|
G-----------|
D------2----| x2 (when you play verse 2, play this 4 times / al verse 2 suona questo 4 volte)
A-4-444-4---|
E-----------|

-CHORUS

D            F#           D            F#
L'anima non serve, serve un posto dove stare
D       A                  C#          F#
L'anima, le bestie, noi pensiamo con il pane

  D       F#      D       F#      D       A       C#      F#
e-----------------------------------------------------------------|
B-----------------------------------------------------------------|
G-7-7-7-7x--------7-7-7-7x--------7-7-7-7x--------6-6-6-6x--------|
D-7-7-7-7x4-4-4-4x7-7-7-7x4-4-4-4x7-7-7-7x7-7-7-7x6-6-6-6x4x444x--|
A-5-5-5-5x4-4-4-4x5-5-5-5x4-4-4-4x5-5-5-5x7-7-7-7x4-4-4-4x4x444x--|
E---------2-2-2-2x--------2-2-2-2x--------5-5-5-5x--------2x222x--|

D             F#          D              F#
Le case vuote puzzano di marcio e di sconfitta
B           A           C#
Tiriamo su un ostello nella steppa

  D     F#    D     F#    B     A     C#
e--------------------------------------------|
B--------------------------------------------|
G-7x777x------7x777x------------------6x66---|6x
D-7x777x4x444x7x777x4x444x9x999x7x777x6x666x
A-5x555x4x444x5x555x4x444x7x777x7x777x4x444x
E-------2x222x------2x222x7x777x5x555x------

-INTRO
play part1(x2) and part2(x8)

-VERSE 3 AND 4
play like VERSE 1 AND 2

3.Paga le immobiliari per rifarti il letto
paga i notai per aver tutto quanto scritto
paga l'affitto e poi vestiti a lutto
quanto va giù il pozzo
4.Paga la colpa di soffrire il freddo
paga la multa per dormire all'aperto
diritto al tetto e non avere un tetto
diritto al tetto e non avere un tetto
diritto al tetto e non averlo


-CHORUS 2
play and sing like the first chorus / suonare e cantare come al primo chorus


-BRIDGE
Diritto al tetto e non avere un tetto
Diritto al tetto e non avere un tetto
Diritto al tetto e non avere un tetto
Diritto al tetto e non avere un tetto

After 4 times continue to sing and play this / Dopo la quarta volta continuare a cantare 
suonare questo
e-----------------|
B-----------------|
G-2-1-2-1-2-1-----| x4
D-----------------|
A-----------------|
E-----------------|

Diritto al tetto e non averlo (x6)
e-----------------|
B-----------------|
G-----------------|
D-----------------|
A-------5-4-------| x8
E-2-2-5-----------|

-CHORUS 3
sing like the 1st chorus / cantare come al primo chorus

  D     F#    D     F#    D     A     C#    F#
e---------------------------------------------------|
B---------------------------------------------------|
G-7x777x------7x777x------7x777x------6x666x--------|
D-7x777x4x444x7x777x4x444x7x777x7x777x6x666x4x444x--|
A-5x555x4x444x5x555x4x444x5x555x7x777x4x444x4x444x--|
E-------2x222x------2x222x------5x555x------2x222x--|

  D     F#    D     F#    B     A     C#
e--------------------------------------------|
B--------------------------------------------|
G-7x777x------7x777x------------------6x66---|6x
D-7x777x4x444x7x777x4x444x9x999x7x777x6x666x
A-5x555x4x444x5x555x4x444x7x777x7x777x4x444x
E-------2x222x------2x222x7x777x5x555x------

-OUTRO
e------------|
B------2-----|
G------2-----|
D-4-44424----| x7 (after 4th time start to sing "Diritto al tetto e non avere un tetto" 
dopo la 4a volta cantare)
A-4-444-4----|
E-2-222-2----|

e------------|
B------2--2--|
G------2--2--|
D-4-44424-24-|
A-4-444-4--4-|
E-2-222-2--2-|
comments
We did not receive enough feedback on this tab! Please rate:
print report bad tab
1 2 3 4 5
2 comments total.
+1 reply
marcoritra87 wrote on September 21 2009, 11:46 am

ottimo grazie!! se riesci postane altre dei ministri!

0 reply
PociaIndieRock wrote on January 4 2010, 11:19 am

non è male come tab!..grande!:) solo una cosa..durante la strofa la seconda chitarra cosa fa?

I want to post or [tab]
guest
You may want to rate the tab now too:
select rating
Please do not post tabs as comments. Select "correction" instead!