Oops, an error
Loading. Please wait.

I Soldi Sono Finiti Bass Tab

1,491 views 1 this week
no commentswrite comment
1 2 3 4 5
please rate
add to favorites
launch autoscroll
font size
0
reset
guitar tuner
Autoscroll
slow
fast
+/-
esc
set tempo
stop
Help us to improve Ultimate-Guitar.com Take our survey!
×
Author
Difficulty
novice
Intro
G|----------------------|
D|----------------------|
A|-22222222-333-4-444---|
E|----------------------|

ENG:The bass plays, and the guitar plays mute notes
ITA:Il basso suona, e la chitarra suona note mute

Pre-verse 1
G|----------------------|
D|----------------------|
A|-2-2-222-333-4-444----|
E|----------------------|

ENG:This starts when the guitar plays
ITA:Questo inizia quando la chitarra suona

Verse
G|----------------------|
D|----------333---------|
A|-22222222-----4-444---|
E|----------------------|

Chorus
G|-----------------------------|
D|-------------------------2-22|
A|--------4-4444--------00-----|
E|-0-0000--------4-4444--------|

ENG:Play once this, and then play this other
ITA:Suona una volta questo, poi suona quest'altro

G|-------------------------------------------------------------------------|
D|-------------------------------------------------------------------------|
A|--------4-4444--------0-000-00-0-000-00----------------------------------|
E|-0-0000--------4-4444-------------------2-222-22-2-222-22-4-444-44-444-44|

G|---------------------------|
D|---------------------------|
A|-0-000-00-0-000-00---------|
E|-------------------22222222|

Pre-verse 2
G|-------------------|
D|-------------------|
A|-4-444-44-3-333-33-|
E|-------------------|

ENG:Now for the second verse play 4 times like the intro and then 4 times like the verse 1
ITA:Ora per la seconda strofa suona 4 volte come l'intro e 4 volte come la strofa 1+

Outro
G|----------------------|
D|----------------------|
A|-0-02020-0-02020-0-3~-|
E|----------------------|
Suggest correction
Give kudos to tab author, rate the tab!
1 2 3 4 5
comments
print report bad tab
guest
You may want to rate the tab now too:
select rating
Please do not post tabs as comments. Select "correction" instead!