Oops, an error
Loading. Please wait.

Il Mio Compagno Di Stanza Tab

294 views 1 this week
no commentswrite comment
1 2 3 4 5
please rate
add to favorites
launch autoscroll
font size
0
reset
how to read this tab
guitar tuner
Tab Pro tools
  • play this tab
  • loop segment
  • change instrument
  • show fretboard
  • metronome
Autoscroll
slow
fast
+/-
esc
set tempo
stop
Contributor
Difficulty
intermediate
Il MIo Compagno Di Stanza Ministri


Intro:


e|----------------------------------------------------------------------------|
b|----------------------------------------------------------------------------|
g|----------------------------------------------------------------------------|
D|----------------------------------------------------------------------------| x2
A|----------------------------------------------------------------------------|
E|-9-9-9-9-9-7-7-7-9-9-9-9-9-7-7----------------------------------------------|









e|----------------------------------------------------------------------------|
b|----------------------------------------------------------------------------|
g|----------------------------------------------------------------------------|
D|--------7---------------7---------------------------------------------------| x4
A|-9-9-9----9-7---7-9-9-9---9-7-----------------------------------------------|
E|--------------9---------------9---------------------------------------------|



 strofa: con palm mute

e|-----------------------------------------------------------------------------|
b|-----------------------------------------------------------------------------|
g|-----------------------------------------------------------------------------|
D|-----------------------------------------------------------------------------|
A|-9-9-9-9-9-9-9-9-9-7-9-9-9-9-9-9-9-9-9---------------------------------------|
E|-----------------------------------------------------------------------------|





e|----------------------------------------------------------------------------|
b|----------------------------------------------------------------------------|
g|----------------------------------------------------------------------------|
D|-------7--------------------------------------------------------------------| x6
A|-9-9-9---9-7----------------------------------------------------------------|
E|-------------9--------------------------------------------------------------|





e|--------------------------------------------------------------------------|
b|-----7--------------------------------------------------------------------|
g|--------------------------------------------------------------------------|
D|---7----------------------------------------------------------------------|
A|-5------------------------------------------------------------------------|
E|--------------------------------------------------------------------------|





Ritornello:




e|--------------------------------------------------------------------------|
b|--------------------------------------------------------------------------|
g|--------------------------------------------------------------------------|
D|--------------------------------------------------------------------------|
A|-999999999---9-9----------------------------------------------------------|
E|-777777777---7-7----------------------------------------------------------|








e|----------------------------------------------------------------------------|
b|----------------------------------------------------------------------------|
g|----------------------------------------------------------------------------|
D|--------7---------------7---------------------------------------------------| x2
A|-9-9-9----9-7---7-9-9-9---9-7-----------------------------------------------|
E|--------------9---------------9---------------------------------------------|





Strofa2 (uguale alla prima)



ritornello




Fine ritornello/birdge



e|----------------------------------------------------------------------------|
b|----------------------------------------------------------------------------|
g|----------------------------------------------------------------------------|
D|----------------------------------------------------------------------------| x8
A|-44444-2-44-----------------------------------------------------------------|
E|-22222-0-22-----------------------------------------------------------------|





e|--------------------------------------------------------------------------|
b|--------------------------------------------------------------------------|
g|--------------------------------------------------------------------------|
D|----------------------------------\---------------------------------------|
A|-9--------------------------------\---------------------------------------|
E|----------------------------------\---------------------------------------|






e|--------------------------------------------------------------------------|
b|--------------------------------------------------------------------------|
g|--------------------------------------------------------------------------|
D|-11-11\------11-11\-------------------------------------------------------|
A|-9-9--\-44---9-9--\-44---9------------------------------------------------|
E|--------22----------22----------------------------------------------------|




e|--------------------------------------------------------------------------|
b|--------------------------------------------------------------------------|
g|--------------------------------------------------------------------------|
D|-11-11\------11-11\-------------------------------------------------------|
A|-9-9--\-44---9-9--\-44----------------------------------------------------|
E|--------22----------22----------------------------------------------------|




e|----------------------------------------------------------------------------|
b|----------------------------------------------------------------------------|
g|----------------------------------------------------------------------------|
D|-7-7-7--9-9-9--6-6-6--------------------------------------------------------|  x3
A|-5-5-5--7-7-7--4-4-4--4-4-4-4-----------------------------------------------|
E|----------------------2-2-2-2-----------------------------------------------|







e|----------------------------------------------------------------------------|
b|----------------------------------------------------------------------------|
g|----------------------------------------------------------------------------|
D|----------------------------------------------------------------------------| x8
A|-44444-2-44-----------------------------------------------------------------|
E|-22222-0-22-----------------------------------------------------------------|





fine



e|----------------------------------------------------------------------------|
b|----------------------------------------------------------------------------|
g|----------------------------------------------------------------------------|
D|-----7---------------7------------------------------------------------------|x4
A-9-9-9----9-7---7-9-9-9---9-7------------------------------------------------|
e|--------------9---------------9---------------------------------------------|
comments
We did not receive enough feedback on this tab! Please rate:
print report bad tab
1 2 3 4 5
I want to post or [tab]
guest
You may want to rate the tab now too:
select rating
Please do not post tabs as comments. Select "correction" instead!