Oops, an error
Loading. Please wait.

Lei Non Deve Stare Male Mai Tab

136 views 24 this week
no commentswrite comment
1 2 3 4 5
3 more votes to show rating
add to favorites
launch autoscroll
font size
0
reset
how to read this tab
guitar tuner
Autoscroll
slow
fast
+/-
esc
set tempo
stop
Help us to improve Ultimate-Guitar.com Take our survey!
×
Author
Difficulty
novice
Artist: Ministri
Song: Lei non deve stare male mai

[Intro]

E|--------------------------------------|
B|--------------------------------------|
G|--0--9-----0--7-----0--9--7--5--4--0--|
D|--------------------------------------| x2
A|--------------------------------------|
E|--------------------------------------|



[Verse 1]

E|-----------------------------------|
B|-----------------------------------|
G|--0--9----------------0--7---------|
D|-----------------------------------|
A|-----------------------------------|
E|-----------------------------------|
La luna ha deluso un po' tutti stasera

E|-------------------|
B|-------------------|
G|-0--9--7--5--4--0--|
D|-------------------|
A|-------------------|
E|-------------------|
Rientra in casa e si sente salvo, toglie il fango dalle scarpe


E|-----------------------------------|
B|-----------------------------------|
G|--0--9----------------0--7---------|
D|-----------------------------------|
A|-----------------------------------|
E|-----------------------------------|
Nessuno l'ha più visto gridare davvero


E|-----------------------------|
B|-----------------------------|
G|--0--9--7--5--4--9--7--5--4--|
D|-----------------------------|
A|-----------------------------|
E|-----------------------------|
Non esce fumo dalla casa perché dorme nel camino


E|--------------------------7--------|
B|-----------------------------7-----|
G|--0--9--------------------------7--|
D|-----------------------------------|
A|-----------------------------------|
E|-----------------------------------|
Da qui sembra che sorrida, o che sia in pace almeno


E|------------------------------------------|
B|--7h8--------------------7h8--8--7--------|
G|------------------------------------9--7--|
D|------------------------------------------|
A|------------------------------------------|
E|------------------------------------------|
Se lo ripete la notte ore, steso lì a cercarsi il cuore




Chorus:

E|-----------------------------------------|
B|-----------------------------------------|
G|--0--9-----------7--------------9--------|
D|-----------------------------------------|
A|-----------------------------------------|
E|-----------------------------------------|
Che lei non dove stare male mai

 
[Interlude]
E|--------------------------------------|
B|--------------------------------------|
G|--0--9-----0--7-----0--9--7--5--4--0--|
D|--------------------------------------|
A|--------------------------------------|
E|--------------------------------------|




[Verse 2]

E|-----------------------------------|
B|-----------------------------------|
G|--0--9----------------0--7---------|
D|-----------------------------------|
A|-----------------------------------|
E|-----------------------------------|
Non sa con chi parlare, come una madre in discoteca

E|-------------------|
B|-------------------|
G|-0--9--7--5--4--0--|
D|-------------------|
A|-------------------|
E|-------------------|
Sta seduto accanto al fiume sotto ai segni della piena

E|-----------------------------------|
B|-----------------------------------|
G|--0--9----------------0--7---------|
D|-----------------------------------|
A|-----------------------------------|
E|-----------------------------------|
E prima di dormire è sempre un grande mistero

E|-----------------------------|
B|-----------------------------|
G|--0--9--7--5--4--9--7--5--4--|
D|-----------------------------|
A|-----------------------------|
E|-----------------------------|
È un pensiero che non dura, come qualsiasi primavera

E|-----------------------------7------------|
B|----------------------------------7-------|
G|--0--9---------------------------------7--|
D|------------------------------------------|
A|------------------------------------------|
E|------------------------------------------|
A sei anni chiedeva le cose che voleva sapere

E|------------------------------------------|
B|----8--------------------7h8--8--7--------|
G|------------------------------------9--7--|
D|------------------------------------------|
A|------------------------------------------|
E|------------------------------------------|
Ora gioca con i muri e si ripete in silenzio

 
[Chorus]

E|-----------------------------------------|
B|-----------------------------------------|
G|--0--9-----------7--------------9--------|
D|-----------------------------------------|
A|-----------------------------------------|
E|-----------------------------------------|
Che lei non deve stare male mai

E|-----------------------------------------|-------------------|
B|-----------------------------------------|--7h8--8--7--------|
G|--9--------------7--------------9--------|-------------9--7--|
D|-----------------------------------------|-------------------|
A|-----------------------------------------|-------------------|
E|-----------------------------------------|-------------------|
Che lei non deve stare male mai



C       D                Em
Lei non deve stare male mai

Farà di tutto farà come tutti gli altri

C       D                Em
Lei non deve stare male mai

C       D                Em
Ma lei non deve stare male mai

Farà una vita come le altre

C       D                Em
Lei non deve stare male mai

Voglio una vita di giorni come gli altri

C       Bm               Em
Lei non deve stare male mai

Sarà una vita di giorni come gli altri

C       Bm               Em
Lei non deve stare male mai



Outro:

E|--------------------|--------------------|--------------------7--------------------|
B|--8--8--8--7--------|--8--8--8--7--------|--8--8--8--7-----------8--8--7--8--7-----|
G|--------------9--7--|--------------9--7--|--------------9--7--------------------9--|
D|--------------------|--------------------|-----------------------------------------|
A|--------------------|--------------------|-----------------------------------------|
E|--------------------|--------------------|-----------------------------------------|
Suggest correction
Give kudos to tab author, rate the tab!
1 2 3 4 5
comments
print report bad tab
guest
You may want to rate the tab now too:
select rating
Wanna post a correction for this tab? Suggest correction