Oops, an error
Loading. Please wait.

Vicenza La Voglio Anchio Una Base A Bass Tab

793 views 1 this week
no commentswrite comment
1 2 3 4 5
please rate
add to favorites
launch autoscroll
font size
0
reset
guitar tuner
Tab Pro tools
  • play this tab
  • loop segment
  • change instrument
  • show fretboard
  • metronome
×
Best way to learn
"Vicenza La Voglio Anchio Una Base A"
Autoscroll
slow
fast
+/-
esc
set tempo
stop
Contributor
Intro
G|----------|
D|----------|
A|----------| x2 
E|-3-2-1----|

G|-------|
D|-------|
A|-------| x6
E|-3-2---|

Verse1
G|-------------------------|
D|-------------------------|
A|-------------------------| 
E|-3-2-1---3-2-1-(0)-3-2-1-|
ITA:Fallo fino al suono della chitarra che introduce il bridge
ENG:Do it still the guitar introduces the bridge

Bridge 1
G|----------------------------------|
D|----------------------------------|
A|-----5-7---5-7---5-7---5-77-6-5-0-|
E|---7-----7-----7-----7------------|

Verse2
G|-------|                  G|-----------------|
D|-------|                  D|-----------------|
A|-------| **little pause** A|-------3-3-------|
E|-3-2-1-|                  E|-3-3-3------3-2-1|
ITA: Fai questo e poi concludi la strofa come la prima
ENG: Do this and then like the Verse 1

Chorus
G|---------------------------|
D|---------------------------|
A|---------------------------| x8
E|---7-7-7-7-6-6-6-6-5-5-5-4-|

Verse3
G|-----------|
D|-----------|
A|--7-6-5----| x22
E|-----------|
ITA: Suona questo velocemente e poi come nella rpima strofa
ENG: Play this quickly and the like Verse 1

Bridge 2
G|--------------|
D|--14-13-12-11-|
A|--------------| x2
E|--------------|

G|--------------------------|
D|--13h14-12h13-11h12-10h11-|
A|--------------------------| x2
E|--------------------------|

Bridge 1
Chorus

Outro
Verse3
G|-----------|
D|-----------|
A|--7-6-5----| x8 
E|-----------|

G|------------|
D|------------|
A|------------|  
E|-(0)-3-2-1--|


Simonetor-------- ciopolo1@hotmail.it
comments
We did not receive enough feedback on this tab! Please rate:
print report bad tab
1 2 3 4 5
I want to post or [tab]
guest
You may want to rate the tab now too:
select rating
Please do not post tabs as comments. Select "correction" instead!