Oops, an error
Loading. Please wait.

Bad Blood Tab

2,797 views 9 this week
no commentswrite comment
1 2 3 4 5
please rate
add to favorites
launch autoscroll
font size
0
reset
how to read this tab
guitar tuner
Tab Pro tools
  • play this tab
  • loop segment
  • change instrument
  • show fretboard
  • metronome
×
Best way to learn
"Bad Blood"
Autoscroll
slow
fast
+/-
esc
set tempo
stop
Contributor
Pre-intro (starts from the end of the strange sounds of Guitar)
E||----------------|
B||----------------|
G||----------------|
D||--12--7--8--12--|
A||--12--7--8--12--|
E||--10--5--6--10--|

Main Intro
E||--------------------|------------------------------|
B||--------------------|------------------------------|
G||--------------------|------------------------------|
D||--14----------------|--12----------13-12-2-2-8-7-2-|
A||--14----------------|--12----------13-12-2-2-8-7-2-|
E||--12----------------|--10----------11-10-0-0-6-5-0-|

|--------------------|-----------------------------|----------------------|
|--------------------|-----------------------------|----------------------|
|--------------------|-----------------------------|----------------------|
|--14----------------|--5----------13-12-2-2-8-7-2-|--14------------13----|
|--14----------------|--5----------13-12-2-2-8-7-2-|--14------------13----|
|--12----------------|--3----------11-10-0-0-6-5-0-|--12------------11----| 

|-----------------------------|---------------------|
|-----------------------------|---------------------|
|-----------------------------|---------------------|
|--5----------13-12-2-2-8-7-2-|--14------------6----|
|--5----------13-12-2-2-8-7-2-|--14------------6----|
|--3----------11-10-0-0-6-5-0-|--12------------4----|

|------------------------------|
|------------------------------|
|--3---------------------------|
|--7----------17-5-5-17-17-2-2-|
|--7----------17-5-5-17-17-2-2-|
|--5----------15-3-3-15-15-0-0-|

Pre-Verse (8x) Verse (8x)

|------------------------------------------------|
|------------------------------------------------|
|------------------------------------2---3---7---|
|--14------------------------------2-2-2-3-2-7-2-|
|--14------------------------------2-0-2-1-2-5-2-|
|--12--0---0---0---0---0---0---0---0---0---0---0-|

Chorus I (4x)
|----------------------------|
|----------------------------|
|----------------------------|
|--14----13----12--7--8--12--|
|--14----13----12--7--8--12--|
|--12----11----10--5--6--10--|

Intro II (you must hold, then release into verse)
|---------------------|-------------------|
|---------------------|-------------------|
|---------------------|-------------------|
|--14-----------------|-------------------|
|--14-----------------|-------------------|
|--12-----------------|-------------------|

|---------------------|-------------------|
|---------------------|-------------------|
|---------------------|-------------------|
|--14-----------------|-----------14--14--|
|--14-----------------|-----------14--14--|
|--12-----------------|-----------12--12--|

Pre-Verse (8x) and Verse (8x), then Chorus II

Chorus II (8x)
|------------------------------|
|------------------------------|
|------------------------------|
|--2----5----2-13-12-2-2-9-8-2-|
|--2----5----2-13-12-2-2-9-8-2-|
|--0----3----0-11-10-0-0-7-6-0-|

Interlude (4x)
|----------------------------------------|
|----------------------------------------|
|----------------------------------------|
|--14-13-12-7-2-9-8-2-14-13-12-7-2-9-8-2-|
|--14-13-12-7-2-9-8-2-14-13-12-7-2-9-8-2-|
|--12-11-10-5-0-7-6-0-12-11-10-5-0-7-6-0-|

Now There's Solo, but I couldn't tab it
|----------------------|---------------------|
|----------------------|----------------------|
|----------------------|----------------------|
|--5-------------------|--5--13-12-2-2-8-7-2--|
|--5-------------------|--5--13-12-2-2-8-7-2--|
|--3-------------------|--3--11-10-0-0-6-5-0--|

|----------------------|----------------------|
|----------------------|----------------------|
|--9-------------------|--9-------------------|
|--9-------------------|--9--13-12-2-2-8-7-2--|
|--7-------------------|--7--13-12-2-2-8-7-2--|
|----------------------|-----11-10-0-0-6-5-0--|

|----------------------|----------------------|
|----------------------|----------------------|
|----------------------|----------------------|
|--5-------------------|--5--13-12-2-2-8-7-2--|
|--5-------------------|--5--13-12-2-2-8-7-2--|
|--3-------------------|--3--11-10-0-0-6-5-0--|

|----------------------|----------------------|
|----------------------|----------------------|
|----------------------|----------------------|
|--14------------13----|--5--13-12-2-2-8-7-2--|
|--14------------13----|--5--13-12-2-2-8-7-2--|
|--12------------11----|--3--11-10-0-0-6-5-0--|

|----------------------|----------------------|
|----------------------|----------------------|
|----------------------|----------------------|
|--14-------------6----|--5--17-5-5-17-17-2-2-|
|--14-------------6----|--5--17-5-5-17-17-2-2-|
|--12-------------4----|--3--15-3-3-15-15-0-0-|

Then Verse, Chorus II, and at the end - Interlude Part with solo
comments
We did not receive enough feedback on this tab! Please rate:
print report bad tab
1 2 3 4 5
I want to post or [tab]
guest
You may want to rate the tab now too:
select rating
Please do not post tabs as comments. Select "correction" instead!