Oops, an error
Loading. Please wait.

Khyber Pass Tab

1,132 views 1 this week
no commentswrite comment
1 2 3 4 5
2 more votes to show rating
add to favorites
launch autoscroll
font size
0
reset
how to read this tab
guitar tuner
Autoscroll
slow
fast
+/-
esc
set tempo
stop
Help us to improve Ultimate-Guitar.com Take our survey!
×
Difficulty
Tuning
intermediate
D A D G B E
  Ministry
  Khyber Pass
  Rio Grande Blood  2006
  Tuning: Drop D [DADGBe]

 First Riff:    x32

 e | -----------------------------------------------------------------|
 B | -----------------------------------------------------------------|
 G | -3-2-------------------------------------------------------------|
 D | -0-0------------3--3--3/7----------------------------------------|
 A | ----------------3--3--3/7----------------------------------------|
 D | -----2bp0-0-----3--3--3/7----------------------------------------|

 Main Sequence:    x12

 e | -----------------------------------------------------------------|
 B | -----------------------------------------------------------------|
 G | -2-2-0-------2-2-0-3-------------2-2-0-------2-2-0-3-------3-----|
 D | -0-0-0-------0-0-0-0-------------0-0-0-------0-0-0-0-------0-----|
 A | -------0-0-0---------0-0-0-0-0---------0-0-0---------0-0-0-------|
 D | -------0-0-0---------0-0-0-0-0---------0-0-0---------0-0-0-------|

 Ominous Riff:    x8

 e | -----------------------------------------------------------------|
 B | -----------------------------------------------------------------|
 G | -----------------------------------------------------------------|
 D | -----------------------------------------------------------------|
 A | -----------------------------------------------------------------|
 D | -0----1----4-----------------------------------------------------|

 *End Riff:    x10

 e | -3p2------3p2-2-2------------------------------------------------|
 B | ----4-3--4---4-4-4-11111111--------------------------------------|
 G | -----------------------------------------------------------------|
 D | ---------------------------4-4-4-5-4-----------------------------|
 A | -----------------------------------------------------------------|
 D | -----------------------------------------------------------------|

*Really hard to grasp what they're playing after the first half of this riff... sorry 
the best I could do.
Suggest correction
Give kudos to tab author, rate the tab!
1 2 3 4 5
comments
print report bad tab
guest
You may want to rate the tab now too:
select rating
Wanna post a correction for this tab? Suggest correction