Oops, an error
Loading. Please wait.

Thieves Tab

version 1
version 1

Whole song

Interactive

6,284 views 15 this week
2 commentsread comments
1 2 3 4 5
x 3
add to favorites
launch autoscroll
font size
0
reset
how to read this tab
guitar tuner
Autoscroll
slow
fast
+/-
esc
set tempo
stop
Help us to improve Ultimate-Guitar.com Take our survey!
×
Author
Ministry: Thieves
Tabbed by: Aaron Nolan (speed_racer420@hotmail.com)
Tuning: Normal
Distortion: Yes

Please email me at speed_racer420@hotmail.com, 
if you have any questions.


Thieves


Intro:

E-0-0-0-0-0-0-0-0-----------0-0-0-0-0-0-0-0-
A----------------3--------------------------
D----------------3--------------------------
(pluck extremely fast)  

play Intro 9 times then hit

E--9----
A---11--
D---11--(BEND ALL)

Then go back to the Intro

Main Riff:


E-0-0-3-0-0-2-0-0-2-0-0-3 repeat until fast riff

(Make sure gain is up high, and you have high distortion on, or else it wont sound right)

fast riff:

E-3-2-0-3-2-0-3-2-0-3-2-0-3


then go back to the Intro

listen to song for timing


Ending:

E--8----/--6----
A----10-/---8--
D----10-/---8--
Suggest correction
Give kudos to tab author, rate the tab!
1 2 3 4 5
comments
print report bad tab
2 comments total.
0 reply
punkrockskater1 0 Apr 05, 2002 12:00 AM

yea, I tabbed this a long time, and I fucked up, this is how its actually supposed to go (I have a new user ID)

Ministry
Thieves
Transcribed by --====--
Tuning Normal
Distortion Yes
ss4_aaron@yahoo.com

Thieves


Intro:

D----------------3--------------------------
A----------------3--------------------------
E-0-0-0-0-0-0-0-0-----------0-0-0-0-0-0-0-0-
(pluck extremely fast)

play Intro 9 times then hit


D---11--(BEND ALL)
A---11--
E----9---



Then go back to the Intro

Main Riff:


E-0-0-3-0-0-2-0-0-2-0-0-3 repeat until fast riff

(Make sure gain is up high, and you have high distortion on, or else it wont sound right)

fast riff:

E-3-2-0-3-2-0-3-2-0-3-2-0-3


then go back to the Intro

listen to song for timing


Ending:

D-10-/---8--
A-10-/---8--
E--8--/--6----

0 reply
Darkrank 10 May 30, 2008 08:44 AM

Interesting, and done alright. I think the ending of it is more like:

e|--------------------
B|--------------------
D|--------------------
G|--3-2---------------
A|--3-2---------------
E|--2-0---------------

But never tested it with large amounts of distortions and gain. I play this without drop D and without overloading an amp and it sounds right with my part at the end.

Anyways, you did great on this.

guest
You may want to rate the tab now too:
select rating
Wanna post a correction for this tab? Suggest correction