Oops, an error
Loading. Please wait.

Recuerdos Tab

9 views 1 this week
no commentswrite comment
1 2 3 4 5
3 more votes to show rating
add to favorites
launch autoscroll
font size
0
reset
how to read this tab
guitar tuner
×
Best way to learn
"Recuerdos"
Autoscroll
slow
fast
+/-
esc
set tempo
stop
hey ke onda  aki dejando mi primera transcripcion
delos minivans, ahi se ven los saluda  el joz3ar

intro:
kreo ke son mas veces, es cuestion de oir la cancion
pero el palm mute si va ademas de mucha distorcion.

gtr1
------------------------
------------------------
----7-------------------
----7-7777-----7777-----
----5-5555-555-5555-999-
-----------333------777-
     **    *   **   *
------------------------
------------------------
------------------------
-----7777-----7777-9--7-
-----5555-555-5555-9--7-
----------333------7--5-
     **    *  **
gtr2
------------------------
------------------------
------------------------
------------------------
-----5-------------9--7-
-----5-------------9--7-
-----3-------------7--5-

gtr2
esto se toka junto con el intro

-------------------------------
-------------------------------
-----7------------7------------
-----7-x----5-----7-x----------
-----5------5-x---5-----999777-
------------3-----------777555-

--------------------------------
--------------------------------
-----7------------7-------------
-----7--x---5-----7-x-----7777--
-----5------5--x--5-----9-5555--
------------3-----------7-------


verso

(esta parte se toka con el bajo)
me la paso pensando
si un dia volveras
por eso no aguanto
ni un minuto mas

--------
--------
--------
---9--7-
---9--7-
---7--5-

me la paso buskando
una forma de hablarte
por eso kuando te llamo nunka nunka estas

---------------------------------
---------------------------------
-----7---------------------------
-----7--x---5-----9-----7--------   x2
-----5------5-x---9-x---7-x------
------------3-----7-----5--------


ke es lo ke te pasaba
pk ya no me amas mas

-------------------    -----------
-------------------    -----------
-------------------    -----------
--------5-----9/7--x2  ---5---9-7-
--------5-x---9/7--    ---5-x-9-7-
--------3-----7/5--    ---3---7-5-


coro

rekuerdas aquellas noches ke pasaba
pensado en ti
rukuerdas akellas tardes ke me encontraba junto ati

---------------------------------
---------------------------------
-----7---------------------------
-----7--x---5-----9-----7--------   x2
-----5------5-x---9-x---7-x------
------------3-----7-----5--------

dime donde a kedado todo lo ke un dia yo te dii
y tan solo rekuerdalo

-------------------    -----------
-------------------    -----------
-------------------    -----------
--------5-----9/7--x2  ---5---9-7-
--------5-x---9/7--    ---5-x-9-7-
--------3-----7/5--    ---3---7-5-

(se repite lo de arriba)

cada vez ke te veo me pongo a recordar
akellos viejos momentos
ke ya no vendran
siempre kuando duermo tengo ke soñar
y cuando despierto
junto a mi realidad
ke ya no no tengo y ke ya
nunka jamas sera

------------------------
------------------------
------------------------
-----7777-----7777-9--7-
-----5555-555-5555-9--7-
----------333------7--5-

se repite el coro

rekuerdas aquellas noches ke pasaba
pensado en ti
rukuerdas akellas tardes ke me encontraba junto ati
dime donde a kedado todo lo ke un dia yo te dii
y tan solo rekuerdalo

-------------------------
-------------------------
-----7~------------------
-----7~--------9-7-------   x2
-----5~--------9-7-------
---------------7-5-------

se repite el coro

rekuerdas aquellas noches ke pasaba
pensado en ti
rukuerdas akellas tardes ke me encontraba junto ati
dime donde a kedado todo lo ke un dia yo te dii
y tan solo rekuerdalo.

-----------------------
-----------------------
-----7777-----7777--5~-
-----5555-555-5555--5~-
----------333-------3~-
     **   *   **

cualquier comentario, duda, correcion  mi correo
es jos rockr@
y ke viva el punk
Suggest correction
Give kudos to tab author, rate the tab!
1 2 3 4 5
comments
print report bad tab
guest
You may want to rate the tab now too:
select rating
Wanna post a correction for this tab? Suggest correction