Oops, an error
Loading. Please wait.

Serenata Punk Bass Tab

11 views 1 this week
no commentswrite comment
1 2 3 4 5
3 more votes to show rating
add to favorites
launch autoscroll
font size
0
reset
guitar tuner
×
Best way to learn
"Serenata Punk"
Autoscroll
slow
fast
+/-
esc
set tempo
stop
Bueno pues m latio la kanzion ii
aki les dejo el TAB

Primero dejamos k la guitarra haga el
intro una ves, ii entramos cn la bateria
^___^
                              esto solo la cuarta ves   v
|------2-----------9------------4----------------|-----------|
|--3-3---3-----7-7---7------5-5---5--------4-5---|---3-------|
|--------------------------------------5-5-------|-----------|(x3)
|------------------------------------------------|-----------|

Niña sal por tu balcon....
|------------------------------------------|
|-------------7~-----------------5x--------|
|----5~-----------------7~-----------------|
|------------------------------------------|

Se que es muy tarde talvez....
|------------------------------------------|
|-------------77777777----------55555555---|
|----55555555----------77777777------------|
|------------------------------------------|

Disculpame  Si te estoy molestando...
|-----------------------------------------|
|------------77------7---------5-5-5-5----|
|----55-----5---------77------7-----------|
|-----------------------------------------|


bueno pues esas son todas las figuras
con eso ya pueden sacar la rola
:)
espero haber sido util
bye
Suggest correction
Give kudos to tab author, rate the tab!
1 2 3 4 5
comments
print report bad tab
guest
You may want to rate the tab now too:
select rating
Wanna post a correction for this tab? Suggest correction