Oops, an error
Loading. Please wait.

Serenata Punk Tab

11 views 1 this week
no commentswrite comment
1 2 3 4 5
3 more votes to show rating
add to favorites
launch autoscroll
font size
0
reset
how to read this tab
guitar tuner
×
Best way to learn
"Serenata Punk"
Autoscroll
slow
fast
+/-
esc
set tempo
stop
hola komo están raza esto es de los minivans kaones oigan la
rola esta buena bueno hay les va komo la sake este es el intro

|-------------55---5----------------33-5-----------------|
|--33---3--------7--------55---5---------2------3--------|
|-----2----------------------3---------------------------|(x2)
|--------------------------------------------------------|
|--------------------------------------------------------|

este es el primer verso kreo se toka una vez

|-------------5-x---------------3-x-----------------|
|---3-x-------7-x------5-x------5-x-----------------|
|---5-x-------7-x------7-x------5-x-----------------|
|---5-x----------------7-x--------------------------|
|---------------------------------------------------|

asi va el resto de la cancion no me se bien los tiempos
asi k ustedes los sakan si no saben ke signifikan las x
es palm mute si no saben token esos akordes a bombamadre
sin las x ¿ok nako?no tan rapido wey lo ke es normal
|-------------5-xx---------3-xx-----------------------|
|----3-x-x----7-xx----5xx--5-xx-----------------------|
|----5-x-x----7-xx----7xx--5-xx-----------------------|
|----5-x-x------------7xx-----------------------------|
|-----------------------------------------------------|
|-----------------------------------------------------

este es el koro supongo,no se kuantas veces

|----------5----------------3--5--------------|
|--3-------7-(x2)-5---------5--7-2-3----------|
|--5-(x2)--7------7-(x2)----5--7-4-5----------|
|--5--------------7--------------4-5----------|
|---------------------------------------------|

y luego al final se toka el intro de nuevo
la segunda guitarra toka kon puras cejillas
estas son las notas para ke sakes lo de las
cejillas c5 a5 d5 g5 practikamente si pones atencion
(nako)es el cirkulo de do un saludo a los minivans
a pipo sosa rafa bob y amis kamaradas el max a omar al gordo
y atodos los kaones kon los ke konvivo
soy felipe eskribeme ami korreo o agregame para pedirme una
rola de estos weyes o para ke saber ke alguien mas los konoce
soda_stereo_4@ faltan arreglos ke lleva la
segundaguitrra luego los sako ok)
la rola:

Serenata punk en akordes
(c am dm g7)asi va toda la rola kuidense
Niña sal por tu balcon

Esto es serenata punk

Disculpa mi condicion

Ando hasta la madre de alcohol

Se que es muy tarde talvez

Y que es martes tmb

Pero debes entender

Sin ti ya no se que hacer

No cumples años ya se

Si me conoces no se

Yo de ti me enamore

Y ahora no se que hacer

Coro

Disculpame

Si te estoy molestando

Disculpame

Pero estaba pisteando

Disculpame

Disculpame

Niña sal por tu balcon

Ya esta por salir el sol

Y yo de aquí no me voy

Hasta acabar mi canción

Disculpame

Si te estoy molestando

Disculpame

Nosotros ya nos vamos
puro rock arriba panda delux division minuscula tolidos aunke
muchos digan ke son fresas ¡birris!
Suggest correction
Give kudos to tab author, rate the tab!
1 2 3 4 5
comments
print report bad tab
guest
You may want to rate the tab now too:
select rating
Wanna post a correction for this tab? Suggest correction