Oops, an error
Loading. Please wait.

Look Back And Laugh Tab

11,458 views 18 this week
no commentswrite comment
1 2 3 4 5
x 16
add to favorites
launch autoscroll
font size
0
reset
how to read this tab
guitar tuner
Autoscroll
slow
fast
+/-
esc
set tempo
stop
Author
Minor Threat
Song-Look Back and Laugh


E-----------------------------------------------------
B-----------------------------------------------------
G-----------------------------------------------------
D---------------1-1---2-4-4-4-2-0---------------------
A-----2-2-2---------2-------------0-------------------
E-0-3-------3-0---------------------------------------

                                          
E-----------------------------------------------------
B-----------------------------------------------------
G-----------------------------------------------------
D---------------1-1---2-4-4-4-2-0-2--x2---------------
A-----2-2-2---------2---------------------------------
E-0-3-------3-0---------------------------------------


E-----------------------------------------------------
B-----------------------------------------------------
G-9-9-9--9-9-9-9---4-4-4--4-4-4-4---------------------
D-9-9-9--9-9-9-9---4-4-4--4-4-4-4--4-4-4-2-0----------
A-7-7-7--7-7-7-7---2-2-2--2-2-2-2------------0--------
E-----------------------------------------------------
  pm.............................

E-----------------------------------------------------
B-----------------------------------------------------
G-9-9-9--9-9-9-9---4-4-4--4-4-4-4---------------------
D-9-9-9--9-9-9-9---4-4-4--4-4-4-4--4-4-4-2-0-2---x3---
A-7-7-7--7-7-7-7---2-2-2--2-2-2-2---------------------
E-----------------------------------------------------
  pm.............................

E-----------------------------------------------------
B-----------------------------------------------------
G-6---6-9---7-11---------------------6---6-9---9-11---
D-6-7-6-9-9-7-11-----7-7-7-7-7-6-4-2-6-7-6-9-9-9-11-x4
A-4-7-4-7-9-9-9------7-7-7-7-7-6-4-2-4-7-4-7-9-7-9----
E---5-----7----------5-5-5-5-5-4-2-0---5-----7--------


E-----------------------------------------------------
B-----------------------------------------------------
G---------9----------------------------7--------------
D-9-9-7-5-9-x4---------5-2--x4--3------7-strum-x2-----
A-9-9-7-5-7--------3-5----------3strum-5--------------
E-7-7-5-3------5-5--------------1---------------------


E-----------------------------------------------------
B-----------------------------------------------------
G-6-4-------------------------------------------------
D-6-4-2--x4-------------------------------------------
A-4-2-2-(pm this chord a bunch of times)--------------
E-----0-----------------------------------------------


E-----------------------------------------------------
B-----------------------------------------------------
G-6---6-9---9---------------------6---6-9---9-11------
D-6-7-6-9-9-9-2-2-2-2-2-2-2-2-----6-7-6-9-9-9-11------
A-4-7-4-7-9-7-2-2-2-2-2-2-2-2-x3--4-7-4-7-9-7-9-------
E---5-----7---0-0-0-0-0-0-0-0-------5-----7-----------
              pm.............

E-----------------------------------------------------
B-----------------------------------------------------
G---------9-------------------------------------------
D-9-9-7-5-9-x3--------9-------------------------------
A-9-9-7-5-7----end on-9-------------------------------
E-7-7-5-3-------------7-------------------------------

This is the whole song, I just don't have the order down.
Listen to the song for timing and order to know what things
are repeated.  Please rate.
Suggest correction
comments
print report bad tab
guest
You may want to rate the tab now too:
select rating
Wanna post a correction for this tab? Suggest correction