Oops, an error
Loading. Please wait.

Minor Threat Tab

version 1
version 1

Whole song

Interactive

23,453 views 45 this week
1 commentread comment
1 2 3 4 5
excellent!
x 11
add to favorites
launch autoscroll
font size
0
reset
how to read this tab
guitar tuner
Tab Pro tools
  • play this tab
  • loop segment
  • change instrument
  • show fretboard
  • metronome
×
Best way to learn
"Minor Threat"
Autoscroll
slow
fast
+/-
esc
set tempo
stop
Contributor
----------------------------------------------------------------------------
-------------------------------Minor_Threat---------------------------------
----------------------------------------------------------------------------

A tribute to the punk movement....

Tuning: Standard

Key: ~ = ring out/hold note

[Intro] 

 |==================4x===============|
e|-----------------------------------|
b|-----------------------------------|
g|7-7-7-7---------9-9-9-9------------|
d|7-7-7-7-7-7-7-7-9-9-9-9-101010-555-|
a|5-5-5-5-7-7-7-7-7-7-7-7-101010-555-|
E|--------5-5-5-5----------8-8-8-333-|

[Verse 1]

 |==================4x===============|
e|-----------------------------------|
b|-----------------------------------|
g|7-7-7-7---------9-9-9-9------------|
d|7-7-7-7-7-7-7-7-9-9-9-9-101010-555-|
a|5-5-5-5-7-7-7-7-7-7-7-7-101010-555-|
E|--------5-5-5-5----------8-8-8-333-|

e|--------------------------------|-------------------|
b|--------------------------------|-------------------|
g|4-4-4-4---------4-4-4-4---7---7-|4-4-4-4---------4~-|
d|4-4-4-4-5-5-5-5-4-4-4-4-7-7-7-7-|4-4-4-4-5-5-5-5-4~-|
a|2-2-2-2-5-5-5-5-2-2-2-2-5-5-5-5-|2-2-2-2-5-5-5-5-2~-|
E|--------3-3-3-3---------5---5---|--------3-3-3-3----|

[Chorus 1]

 |=======10x======|
e|----------------|<-(play all notes like fast triplets)
b|----------------|
g|777---999-------|
d|777777999101010-| 
a|555777777101010-|
E|---555----8-8-8-|

[Pre-Verse]

 |==================4x===============|
e|-----------------------------------|
b|-----------------------------------|
g|7-7-7-7---------9-9-9-9------------|
d|7-7-7-7-7-7-7-7-9-9-9-9-101010-555-|
a|5-5-5-5-7-7-7-7-7-7-7-7-101010-555-|
E|--------5-5-5-5----------8-8-8-333-|

[Verse 2]

 |==================4x===============|
e|-----------------------------------|
b|-----------------------------------|
g|7-7-7-7---------9-9-9-9------------|
d|7-7-7-7-7-7-7-7-9-9-9-9-101010-555-|
a|5-5-5-5-7-7-7-7-7-7-7-7-101010-555-|
E|--------5-5-5-5----------8-8-8-333-|

e|--------------------------------|-------------------|
b|--------------------------------|-------------------|
g|4-4-4-4---------4-4-4-4---7---7-|4-4-4-4---------4~-|
d|4-4-4-4-5-5-5-5-4-4-4-4-7-7-7-7-|4-4-4-4-5-5-5-5-4~-|
a|2-2-2-2-5-5-5-5-2-2-2-2-5-5-5-5-|2-2-2-2-5-5-5-5-2~-|
E|--------3-3-3-3---------5---5---|--------3-3-3-3----|

[Chorus 2/outro]

 |=======10x======|
e|----------------|<-(play all notes like fast triplets)
b|----------------|
g|777---999-------|7-|
d|777777999101010-|7-| 
a|555777777101010-|5-|
E|---555----8-8-8-|--|
comments
print report bad tab
1 comment total.
0 reply
SumFX wrote on August 23 2009, 04:32 pm

Very Good! I Gave It 4 Stars, Needs Work.

I want to post or [tab]
guest
You may want to rate the tab now too:
select rating
Please do not post tabs as comments. Select "correction" instead!