Oops, an error
Loading. Please wait.

Out Of Step tab

11,283 views 21 this week
4 commentsread comments
1 2 3 4 5
x 8
add to favorites
×
Save as Personal and add changes to this tab that will be seen only by you. Learn more ›
×
You can save this tab as Personal to edit and correct it or add notes. All changes will be seen only by you. Learn more »
launch autoscroll
font size
0
reset
how to read this tab
guitar tuner
edit
Autoscroll
slow
fast
+/-
esc
set tempo
stop
Author
Difficulty
Artist: Minor Threat
Song: Out Of Step
Guitarists: Brian Baker and Lyle Preslar


This song is really quick, and really easy.

Verse
----------------------------------|
----------------------------------|
----------------------------------|
--7-10-7--7-10-7---12---14-12-----|
--5-8--5--5-8--5---10---12-10-----|x4
----------------------------------|

Chorus
---------------------------------------------------------------|
---------------------------------------------------------------|
-----------------------------------------------9-9-9-9-9-9-9-9-|
--9-9-9-9-9-9-9-9----6-6-6----9-9-9-9-9-9-9-9--7-7-7-7-7-7-7-7-|
--7-7-7-7-7-7-7-7----4-4-4----7-7-7-7-7-7-7-7------------------|
---------------------------------------------------------------|x2

2nd Verse
----------------------------------|
----------------------------------|
----------------------------------|
--7-10-7--7-10-7---12---14-12-----|
--5-8--5--5-8--5---10---12-10-----|x4
----------------------------------|

2nd Chorus
---------------------------------------------------------------|
---------------------------------------------------------------|
-----------------------------------------------9-9-9-9-9-9-9-9-|
--9-9-9-9-9-9-9-9----6-6-6----9-9-9-9-9-9-9-9--7-7-7-7-7-7-7-7-|
--7-7-7-7-7-7-7-7----4-4-4----7-7-7-7-7-7-7-7------------------|
---------------------------------------------------------------|x2
{Bass Interlude}
There's no guitar part for this interlude but you can follow the baseline with this:
------------------------------------------------|
------------------------------------------------|
------------------------------------------------|
---7-10-7--7-10-7----5-8-5--5-8-5---------------|
---5-8--5--5-8--5----3-6-3--3-6-3---------------|
------------------------------------------------|x8
Final Chorus
---------------------------------------------------------------|
---------------------------------------------------------------|
-----------------------------------------------9-9-9-9-9-9-9-9-|
--9-9-9-9-9-9-9-9----6-6-6----9-9-9-9-9-9-9-9--7-7-7-7-7-7-7-7-|
--7-7-7-7-7-7-7-7----4-4-4----7-7-7-7-7-7-7-7------------------|
---------------------------------------------------------------|x2
Suggest correction
Creating personal tab
Creating personal tab
You can edit any tab online and save it as your Personal.

You can edit, replace or remove any tab part or add personal notes – all changes will be seen only by you.

Personal tabs can be accessed anytime from any device, even offline.
Learn more »
comments
print report bad tab
4 comments total. Showing first comments.
-1 reply
MattTheArsonist 557 Jul 21, 2006 03:28 AM

My only complaint is that in the verse it goes:

-------------------------------------------|
-------------------------------------------|
-------------------------------------------|
--7-10-7--7-10-7---12---14-12---12-14-12---|
--5-8--5--5-8--5---10---12-10---10-12-10---|
-------------------------------------------|

Just had to had an extra progression on the last riff.

+2 reply
mint_car 111 Oct 09, 2007 08:36 AM

your correction is wrong. the original is perfect.

+1 reply
Infamou$17 170 Dec 29, 2007 01:15 PM

Dead on tab, bro

guest
You may want to rate the tab now too:
select rating
Wanna post a correction for this tab? Suggest correction