Oops, an error
Loading. Please wait.

Salad Days bass

version 1
version 1

Whole song

Interactive

3,148 views 6 this week
no commentswrite comment
1 2 3 4 5
2 more votes to show rating
add to favorites
×
Save as Personal and add changes to this tab that will be seen only by you. Learn more ›
×
You can save this tab as Personal to edit and correct it or add notes. All changes will be seen only by you. Learn more »
launch autoscroll
font size
0
reset
guitar tuner
edit
Autoscroll
slow
fast
+/-
esc
set tempo
stop
Author
begining: (2x)
G ----------3>|G --------------|
D ----5>------|D ----7>------0-|
A -5>---------|A -7>-----------|
E ------------|E --------------|

then play
G ------------------------|
D ------------------------|
A 22222222*-----------14--|
E ------------------------|
verse
G -----------------------|
D ----------------222222-|
A 2222222-0000000--------|
E -----------------------|

chorus: play first part twice then second twice then repeat
G ---------------- |G ---------------|
D -----------222-4}|D -----------222-|
A 2-2-2-2-00------ |A 2-2-2-2-00-----|
E ---------------- |E ---------------|

then play
G ------------------------------|
D ------------------------------|
A 222222222222222222222222222222|
E ------------------------------|

on the last chorus the bassist plays this on one of the lines
G -----------------4--|
D ----------222-4-----|
A 2-2-2-2-00----------|
E --------------------|
thats all just figure out were everything goes
when you see > that means its a harmonick almost like a mute,
* means play alot,and } that means let it ring

P.S. please add me, my profile name is :haydiedoogie
Suggest correction
Creating personal tab
Creating personal tab
You can edit any tab online and save it as your Personal.

You can edit, replace or remove any tab part or add personal notes – all changes will be seen only by you.

Personal tabs can be accessed anytime from any device, even offline.
Learn more »
Give kudos to tab author, rate the tab!
1 2 3 4 5
comments
print report bad tab
guest
You may want to rate the tab now too:
select rating
Wanna post a correction for this tab? Suggest correction