Oops, an error
Loading. Please wait.

Think Again tab

4,932 views 3 this week
1 commentread comment
1 2 3 4 5
x 3
add to favorites
×
Save as Personal and add changes to this tab that will be seen only by you. Learn more ›
×
You can save this tab as Personal to edit and correct it or add notes. All changes will be seen only by you. Learn more »
launch autoscroll
font size
0
reset
how to read this tab
guitar tuner
edit
Autoscroll
slow
fast
+/-
esc
set tempo
stop
tabbed by: kord84@yahoo.com
artist: minor threat
song: think again
 
intro 
e---------------------------------------
b---------------------------------------
g---------------------------------------
d-2-1----2-2-1-4-4---2-1----2-2-1-4-4---
a-----0-2---------0-2----0-2---------0-2
e----2------------------2---------------

verse a             verse b
e------------------------
b------------------------
g-7---7----7-------------
d-5-9-5-77-5----------5-7
a---7---55---5-777--33355
e------------3-555--11-3-

chorus 
e-----------------------------------------
b-----------------------------------------
g-----------------------------------------
d-8888777788887777888888881010101010101010
a-6666555566665555666666668-8-8-8-8-8-8-8-
e-----------------------------------------

solo
e--------------
b--------------
g-(7)-------7--
d-(5)--7--7-5--
a-----55-5---57
e------------35
()=let ring 

verse b  verse c
e-------------
b-------------
g----------5-7
d---5-7--33355
a-33355--11-3-
e-11-3--------

last chorus
e-------------------------------------------
b-------------------------------------------
g-------------------------------------------
d-8888777788887777888888881010101010101010-5
a-6666555566665555666666668-8-8-8-8-8-8-8--3
e-------------------------------------------

order of music
intro 1x
verse a 4x
verse b 4x
chorus
verse a 6x
verse b 4x
solo 1x
verse a 2x
verse b 4x
chorus
verse b 4x
verse c 4x
chorus

            
            
Suggest correction
Creating personal tab
Creating personal tab
You can edit any tab online and save it as your Personal.

You can edit, replace or remove any tab part or add personal notes – all changes will be seen only by you.

Personal tabs can be accessed anytime from any device, even offline.
Learn more »
Give kudos to tab author, rate the tab!
1 2 3 4 5
comments
print report bad tab
1 comment total.
0 reply
Schmuckyou 10 Sep 06, 2014 09:41 AM

I don't know whether to commend you or condemn you. How'd you get the intro so close and yet screw it up so badly?

Here's what it sounds like to me:

E|-----------------------------------------------
B|-----------------------------------------------
G|-----------------------------------------------
D|--2--1-----------2--2--1--2--2--4-----------X2-
A|-----------0--2--------------------0~--2-------
E|--------2--------------------------------------

guest
Wanna post a correction for this tab? Suggest correction