Oops, an error
Loading. Please wait.

Metaphysical Burst Tab

100 views 1 this week
no commentswrite comment
1 2 3 4 5
accurate
x 1
add to favorites
launch autoscroll
font size
0
reset
how to read this tab
guitar tuner
Tab Pro tools
  • play this tab
  • loop segment
  • change instrument
  • show fretboard
  • metronome
Autoscroll
slow
fast
+/-
esc
set tempo
stop
Contributor
Difficulty
intermediate
http://www.fnd-online.com/mbb/

MINORITY BLUES BAND - METAPHYSICAL BURST

    e|-----------------------------------------|
    B|-----------0---------------------0-------|
GTR G|-----8-----4-----8---------6-----4---6-6-|
 1  D|---6---6-----6-----6-----4---4-----------|
    A|-7-------7-----7-----7-6-------6---6-----|
    E|-----------------------------------------|

    e|--------------------------0-------|
    B|------------0-------------0-------|
GTR G|-----4--------4-----3---------3-3-|
 1  D|---2---2----------1---1-----------|
    A|-4-------4------2-------2---------|
    E|----------------------------------|

    e|-----------------------------------------|
    B|-----------0---------------------0-------|
GTR G|-----8-----4-----8---------6-----4---6-6-|
 1  D|---6---6-----6-----6-----4---4-----------|
    A|-7-------7-----7-----7-6-------6---6-----|
    E|-----------------------------------------|

    e|----------------------------|
    B|------------0---------------|
GTR G|-----4--------4-3---3-3-3-3-|
 1  D|---2---2--------1---1-1-1-1-|
    A|-4-------4------2---2-2-2-2-|
    E|----------------------------|

    e|-------------------------------------|
    B|-------------------------------------|
GTR G|-88888888-66666666-44444444-33333333-|
1+2 D|-66666666-44444444-2222-----11111111-|
    A|-77777777-66666666-44444444-22222222-|
    E|-----------------------2222----------|

    e|---------------------------------|
    B|---------------------------------|
GTR G|-88888888-666-8888-9999-11111111-|
 1  D|-66666666-444--------------------|
    A|-77777777-666--------------------|
    E|---------------------------------|

    e|-------------------|
    B|-------------------|
GTR G|-88888888-66666666-|
 2  D|-66666666-44444444-|
    A|-77777777-66666666-|
    E|-------------------|

    e|----------|---- 1,3 ------|----------------|
    B|-12-------|---------------|-14-12-11h12p11-|
GTR G|----13p11-|-8-11-11h13p11-|----------------|
 1  D|----------|---------------|----------------|
    A|----------|---------------|----------------|
    E|- prefix -|---------------|------- 2 ------|

    e|----------|---------------|------- 2 ------|
    B|----------|---------------|----------------|
GTR G|-4--6--8--|-4----6----8---|-4----6----8----|
 2  D|----------|---------------|----------------|
    A|-4--6--7--|-4----6----7---|-4----6----7----|
    E|----------|---------------|----------------|

    e|----------|
    B|----------|
GTR G|-4--6--8--|
1+2 D|----------|
    A|-4--6--7--|
    E|----------|

    e|-0-----0-------0-------------------------------|
    B|-0---------------------------------------------|
GTR G|-4-------4-------4-----------------------------|
1+2 D|-4---------4-------4-6666-4444-----2-2-2-2-2-2-|
    A|-2-------------------6666-4444-222-2-2-2-2-2-2-|
    E|---------------------4444-2222-000-0-0-0-0-0-0-|
                                     P M

    e|-0---0-0------0-------------------------------|
    B|-0-------0------------------------------------|
GTR G|-4--------------4-----------------------------|
1+2 D|------------------4-6666-4444-----2-2-2-2-2-2-|
    A|-2------------------6666-4444-222-2-2-2-2-2-2-|
    E|--------------------4444-2222-000-0-0-0-0-0-0-|
                                    P M

    e|------------------------------------------------------------|
    B|------------------------------------------------------------|
GTR G|-8-8----------8-8--------8-8------8-8--------8-8--------8---|
1+2 D|-9-9----------9-9--------9-9------9-9--------9-9--------9---|
    A|-7-7----------7-7--------7-7------7-7--------7-7--------7---|
    E|-----00000000-----000000-----0000-----000000-----000000-----|
           PMPMPMPM     PMPMPM     PMPM     PMPMPM     PMPMPM

    e|-0-----0-------0-------------------------------|
    B|-0---------------------------------------------|
GTR G|-4-------4-------4-----------------------------|
1+2 D|-4---------4-------4-6666-4444-----2-2-2-2-2-2-|
    A|-2-------------------6666-4444-222-2-2-2-2-2-2-|
    E|---------------------4444-2222-000-0-0-0-0-0-0-|
                                     P M

    e|-0---0-0------0-------------------------------|
    B|-0-------0------------------------------------|
GTR G|-4--------------4-----------------------------|
1+2 D|------------------4-6666-4444-----2-2-2-2-2-2-|
    A|-2------------------6666-4444-222-2-2-2-2-2-2-|
    E|--------------------4444-2222-000-0-0-0-0-0-0-|
                                    P M

    e|------------------------------------------------------------|
    B|------------------------------------------------------4--5--|
GTR G|-8-8----------8-8--------8-8------8-8--------8-8------------|
1+2 D|-9-9----------9-9--------9-9------9-9--------9-9------------|
    A|-7-7----------7-7--------7-7------7-7--------7-7------------|
    E|-----00000000-----000000-----0000-----000000----------------|
           PMPMPMPM     PMPMPM     PMPM     PMPMPM   

    e|-------------------|-------------------------------------|
    B|---------5---------|---------5-----------------5---------|
GTR G|-----8-----8-------|-----8-----8-----------8-----8-------|
1+2 D|---6---6-----6---6-|---6---6-----6---6---6---6-----6---6-|
    A|-7-------------7---|-6-------------7---------------------|
    E|------ x2 ---------|-------------------7-------------7---|

    e|-------------------|------------------------------|
    B|---------5---------|---------5--------------------|
GTR G|-----8-----8-------|-----8-----8------------------|
1+2 D|---6---6-----6---6-|---6---6-----6---6------------|
    A|-7-------------7---|-6-------------7--------------|
    E|------ x2 ---------|-------------------4--6--7--6-|

    e|-------------------------------------|
    B|-------------------------------------|
GTR G|-88888888-66666666-44444444-33333333-|
1+2 D|-66666666-44444444-2222-----11111111-|
    A|-77777777-66666666-44444444-22222222-|
    E|-----------------------2222----------|

    e|---------------------------------|
    B|---------------------------------|
GTR G|-88888888-666-8888-9999-11111111-|
 1  D|-66666666-444--------------------|
    A|-77777777-666--------------------|
    E|---------------------------------|

    e|-------------------|
    B|-------------------|
GTR G|-88888888-66666666-|
 2  D|-66666666-44444444-|
    A|-77777777-66666666-|
    E|-------------------|

    e|----------|---- 1,3 ------|----------------|
    B|-12-------|---------------|-14-12-11h12p11-|
GTR G|----13p11-|-8-11-11h13p11-|----------------|
 1  D|----------|---------------|----------------|
    A|----------|---------------|----------------|
    E|- prefix -|---------------|------- 2 ------|

    e|----------|---------------|------- 2 ------|
    B|----------|---------------|----------------|
GTR G|-4--6--8--|-4----6----8---|-4----6----8----|
 2  D|----------|---------------|----------------|
    A|-4--6--7--|-4----6----7---|-4----6----7----|
    E|----------|---------------|----------------|

    e|----------|
    B|----------|
GTR G|-4--6--8--|
1+2 D|----------|
    A|-4--6--7--|
    E|----------|

break

    e|------------------------------------------|
    B|--------7----9------7------7----9-----77--|
GTR G|-6h8--------------------------------------|
1+2 D|------------------------------------------|
    A|-----66---66-----66-----------------------|
    E|----------------------7777---77-----77----|
           PM   PM     PM   PMPM   PM     PM

    e|-------------------------------------------------|
    B|------7----9------77------7-----11111111-7-7-7-7-|
GTR G|--------------------------------8-8-8-8--8-8-8-8-|
1+2 D|--------------------------------9-9-9-9--9-9-9-9-|
    A|-6666---66-----66--------------------------------|
    E|---------------------7777---77-------------------|

    e|-----------------------------------------|
    B|-----------------------------------------|
GTR G|-444444-666-888-1515151515151515-1616-18-|
1+2 D|-----------------------------------------|
    A|-222222-444-666-1313131313131313-1414-16-|
    E|-----------------------------------------|

    e|---------------------------------------|
    B|---------------------------------------|
GTR G|-444444-666-888-1515151515151515131313-|
1+2 D|---------------------------------------|
    A|-222222-444-666-1313131313131313131313-|
    E|---------------------------------------|

    e|-----------------------------------------------------|
    B|--------------------------161616161616-141414-121212-|
GTR G|-1818-1616-1515-1616-1515----------------------------|
1+2 D|--------------------------141414141414-111111-9-9-9--|
    A|-1616-1414-1313-1414-1313----------------------------|
    E|-----------------------------------------------------|

    e|------------------------------------------------|
    B|----------------------10101011-11111112-1212-14-|
GTR G|-444444-181818-151515---------------------------|
1+2 D|----------------------8-8-8-9--8-8-8-9--9-9--11-|
    A|-222222-161616-131313---------------------------|
    E|------------------------------------------------|

    e|-------------------|-------------------------------------|
    B|---------5---------|---------5-----------------5---------|
GTR G|-----8-----8-------|-----8-----8-----------8-----8-------|
1+2 D|---6---6-----6---6-|---6---6-----6---6---6---6-----6---6-|
    A|-7-------------7---|-6-------------7---------------------|
    E|------ x2 ---------|-------------------7-------------7---|

    e|-------------------|------------------------------|
    B|---------5---------|---------5--------------------|
GTR G|-----8-----8-------|-----8-----8------------------|
1+2 D|---6---6-----6---6-|---6---6-----6---6------------|
    A|-7-------------7---|-6-------------7--------------|
    E|------ x2 ---------|-------------------4--6--7--6-|

    e|-------------------------------------|
    B|-------------------------------------|
GTR G|-88888888-66666666-44444444-33333333-|
1+2 D|-66666666-44444444-2222-----11111111-|
    A|-77777777-66666666-44444444-22222222-|
    E|-----------------------2222----------|

    e|-------------------------------------|
    B|-------------------------------------|
GTR G|-88888888-66666666-44444444-33333333-|
 1  D|-66666666-44444444-2222-----11111111-|
    A|-77777777-66666666-44444444-22222222-|
    E|-----------------------2222----------|

    e|---------------------------------------|
    B|-------------------------------2-4-2-0-|
GTR G|-88888888-66666666-44444444-33---------|
 2  D|-66666666-44444444-2222-----11---------|
    A|-77777777-66666666-44444444-22---------|
    E|-----------------------2222------------|

    e|-------------------------------------|
    B|-------------------------------------|
GTR G|-88888888-66666666-44444444-44444444-|
 1  D|-66666666-44444444-2222--------------|
    A|-77777777-66666666-44444444-44444444-|
    E|-------------------22222222-11111111-|

    e|---------------------------------------|
    B|---------------------------------11-12-|
GTR G|-88888888-66666666-44444444-4444-------|
 2  D|-66666666-44444444-2222----------------|
    A|-77777777-66666666-44444444-4444-------|
    E|-------------------22222222-1111-------|

    e|---------------------------------|
    B|---------------------------------|
GTR G|-88888888-666-8888-9999-11111111-|
 1  D|-66666666-444--------------------|
    A|-77777777-666--------------------|
    E|---------------------------------|

    e|-----14--------------------|
    B|-14^----14^-14-12----------|
GTR G|------------------66666666-|
1+2 D|------------------44444444-|
    A|------------------66666666-|
    E|---------------------------|

    e|----------|---- 1,3 ------|----------------|-------------|
    B|-12-------|---------------|-14-12-11h12p11-|-14-12-11h12-|
GTR G|----13p11-|-8-11-11h13p11-|----------------|-------------|
 1  D|----------|---------------|----------------|-------------|
    A|----------|---------------|----------------|-------------|
    E|- prefix -|---------------|------- 2 ------|----- 4 -----|

    e|----------|---------------|------- 2 ------|
    B|----------|---------------|----------------|
GTR G|-4--6--8--|-4----6----8---|-4----6----8----|
 2  D|----------|---------------|----------------|
    A|-4--6--7--|-4----6----7---|-4----6----7----|
    E|----------|---------------|----------------|

    e|------------------|
    B|------------------|
GTR G|-1616161616161616-|
 1  D|------------------| x3
    A|-1414141414141414-|
    E|------------------|

    e|----------|
    B|----------|
GTR G|-4--6--8--|
 2  D|----------| x3
    A|-4--6--7--|
    E|----------|

    e|----------|
    B|----------|
GTR G|-4--6--8--|
 2  D|----------| 
    A|-4--6--7--|
    E|----------|

END
comments
We did not receive enough feedback on this tab! Please rate:
print report bad tab
1 2 3 4 5
I want to post or [tab]
guest
You may want to rate the tab now too:
select rating
Please do not post tabs as comments. Select "correction" instead!