Oops, an error
Loading. Please wait.

Cold Company Tab

5,888 views 27 this week
no commentswrite comment
1 2 3 4 5
excellent!
x 3
add to favorites
launch autoscroll
font size
0
reset
how to read this tab
guitar tuner
Autoscroll
slow
fast
+/-
esc
set tempo
stop
Help us to improve Ultimate-Guitar.com Take our survey!
×
Author
-------------------------------------------------------------------------------
                             CODE COMPany - MINUS THE BEAR
-------------------------------------------------------------------------------
Tabbed by:
E-mail:

Tuning:
00:00-0:36
e|------------------------------------------------15-----19-15-----19-15-----|
B|----17------19------17------19------17------19----17-15-----19-15-----19-15|
G|------14------16------14------16------14------16---------------------------|X 4
D|16------19------16------19------16------19---------------------------------|
A|--14------16------14------16------14------16-------------------------------|
E|---------------------------------------------------------------------------|
 0:36-0:43                           0:48
e|19-12-15--------19-12-15---------------------------------------------------|
B|--------17-12-15--------19-12-15-12-----------------10-7-14-7-10-7-10/12---|
G|---------------------------------------------------------------------------|
D|---------------------------------------------------------------------------|
A|---------------------------------------------------------------------------|
E|------------------------------------7-5-7-5-2-0-2-0------------------------|
                       repeat
e|---------------------------------------------------------------------------|
B|---------10-7-17-7-19------------------------------------------------------|
G|---------------------------------------------------------------------------|
D|---------------------------------------------------------------------------|
A|---------------------------------------------------------------------------|
E|7-5-7-5---------------2-0-2-0----------------------------------------------|
 1:15
e|-----------------------------------------------------------------------------|
B|12-0-7-14-0-10-15-0-15-0-10-17-12-7-14-7-15-7-10-17-7-19-7-10-17-12-7-14-7---|
G|-----------------------------------------------------------------------------|
D|-----------------------------------------------------------------------------|
A|-----------------------------------------------------------------------------|
E|-----------------------------------------------------------------------------|

e|------------------------------------------------------------/19-15-------19|
B|15-7-10-17-7-10-19-7-10-17-7--10-7-12-7-14-7-15-7-17-7-19-7/-------19-15---|
G|---------------------------------------------------------------------------|
D|---------------------------------------------------------------------------|
A|---------------------------------------------------------------------------|
E|---------------------------------------------------------------------------|
             1:26
e|15-------------------------------------------------------------------------|
B|---19-15-12----------------------------------------------------------------|
G|--------------------------------------------------------9------12--12------|
D|-----------7-7-7-7---2-2-2---4---4---4-----4-----4-9------------------7-7--|
A|-----------------------------------------------------0-9-9-0-10--10--------|
E|------------7-7-7-0-2-2-2-0-3-3-3-3-5-5-7-5-5-7-5-9-9----------------5-5---|
                                                  then repeat riff 3 & 4
e|-----------------------------------------------------------------------------|
B|--------12-14-17--------------------------19-19------------------------------|
G|--------14-16-19---------18-16-14---------21-21------------------------------|
D|-----------------------------------------------------------------------------|
A|-----------------------------------------------------------------------------|
E|5-7-5-7-----------2-0-2-0----------2-0-2-0-----------------------------------|
 2:40
e|-------------------2-0-----2-2-0------------------------0----------------------|
B|----5-5-7---0-2--2-2-0-----2-2-0------------------------0-----5-7-0------------|
G|----7-7-9-----4--4-2-0-----2-2-0------------------------0-----7-9-----2-4-2-0--|
D|7-7-------2-2----------4-4---------4---7---4---7---4--7---7-7-----2-2----------|
A|-------------------------------------------------------------------------------|
E|7-7-------2-2----------3-3-------5---5---5---5---5--5-----7-7-----2-2----------|
                                          3:16-3:39
e|----------2---17-----------------------------------------------------------|
B|----------2-----17-19----------------------17----------17----------17------|
G|----------2-----------18-19------------------------------------------------|
D|4-2-0-4-4-------------------19-21----16-------14-16-------14-16-------14-17|
A|----------------------------------19---------------------------------------|
E|------3-3-------------------------------14----------14----------14---------|
                       into riff 4 then verse at 2:40
e|---------------------------------------------------------------------------|
B|---19-------19-------------------------------------------------------------|
G|------------------x3-------------------------------------------------------|
D|------16-17----15----------------------------------------------------------|
A|---------------------------------------------------------------------------|
E|15-------------------------------------------------------------------------|

e|17---------------------------------------17----17----------------------------|
B|------17---19----------------------------------------17---19-----------------|
G|----------------18----19----------------------------------------18---19/21---|
D|---16----16--16----16----16-19-16-21-16-----------16----16---16---16---------|
A|--------------------------------------------19-------------------------------|
E|-----------------------------------------------------------------------------|
15

Thats all of it Email me @ Thighto2 Gmail
************************************
Suggest correction
Give kudos to tab author, rate the tab!
1 2 3 4 5
comments
print report bad tab
guest
You may want to rate the tab now too:
select rating
Wanna post a correction for this tab? Suggest correction