Oops, an error
Loading. Please wait.

Dayglow Vista Rd bass

1,613 views 1 this week
no commentswrite comment
1 2 3 4 5
2 more votes to show rating
add to favorites
×
Save as Personal and add changes to this tab that will be seen only by you. Learn more ›
×
You can save this tab as Personal to edit and correct it or add notes. All changes will be seen only by you. Learn more »
launch autoscroll
font size
0
reset
guitar tuner
edit
Autoscroll
slow
fast
+/-
esc
set tempo
stop
Author
Drop D Tuning
They had no tabs i could find for this song, so i decided to tab it out myself. Your 
going to have to find the groove yourself but these tabs go through every little note, so 
BE OBSERVANT, there will be little changes.

(((((X2)))= means play part twice before moving on.
     H    = hammer on
     <--- = there is a slight change in a bass line.
     ~    = hold note
     s    = slide
     p    = Pull off
the bass starts at :48
:48
G--------------------------|
D----------9---------------|
A--7-7--7h9-9--7-7--7-9----|
E----------------------9---|

G---------------------------------------------------|
D-----------------9---------------------------------|
A-------------9h11---------------9h11---------------|
E--11-11---11----------11-11---11----11-------------|

G---------------------------------------------------------|
D-----------------9---------------------------------------|
A-------------9h11---------------11~---------------- <----|
E--11-11---11----------11-11---11---11--------------------|


:57 *piano enters*
G-------------------------|
D----------9--------------|
A--7-7--7h9-9--7-7--7-9---|
E----------------------9--| (((((X2))))

G----------------------------------------------------------|
D-----------------9----------------------------------------|
A-------------9h11----------------11-9--------------  <----|
E--11-11---11----------11-11---11--------------------------|

G---------------------------------------------------|
D-----------------9---------------------------------|
A-------------9h11---------------9h11---------------|
E--11-11---11----------11-11---11----11-------------|

Verse 1:10 "Walking down,Dayglow.."
G---------------------------------------------------|
D---------------------------------------------------|
A--7~--9~-------------------------------------------|
E-----------9-11~---11-9~---------9-11-9------------|

G---------------------------------------------------|
D---------------------------------------------------|
A--7~--9~-------------------------------------------|
E-----------9-11~---11-9~----9-9--9-11-9------------|

1:34 "And Everybodys gotta..."
G-------------------------|
D----------9--------------|
A--7-7--7h9-9--7-7--7-9---|
E----------------------9--| (((((X2))))

G---------------------------------------------------|
D-----------------9---------------------------------|
A-------------9h11---------------9h11---------------|
E--11-11---11----------11-11---11----11-------------|

G---------------------------------------------------------|
D-----------------9---------------------------------------|
A-------------9h11---------------9h11-11------------ <----|
E--11-11---11----------11-11---11-------------------------|

And again..
G-------------------------|
D----------9--------------|
A--7-7--7h9-9--7-7--7-9---|
E----------------------9--| (((((X2))))

G---------------------------------------------------------|
D-----------------9---------------------------------------|
A-------------9h11---------------9h11-9------------- <----|
E--11-11---11----------11-11---11-------------------------|

G---------------------------------------------------------|
D-----------------9---------------------------------------|
A-------------9h11---------------9h11-9------------- <----|
E--11-11---11----------11-11---11-------------------------|

1:58 "Looks so sweet, so sweet.."
G---------------------------*----------------------- ********************--|
D---------------------------*----------------------------------------------| THIS IS WHERE THE CHIME
A--7~--9~-------------------*----------------------- COMES IN************--|
E-----------9-11~---11-9~---*---9h11---------------- ********************--|

G---------------------------------------------------|
D---------------------------------------------------|
A--7~--9~-------------------------------------------|
E-----------9-11~---11-9~---------9-11-9------------|

2:23 "And everybodys gotta shine..."
G-------------------------|
D----------9--------------|
A--7-7--7h9-9--7-7--7-9---|
E----------------------9--| (((((X2))))

G---------------------------------------------------------|
D-----------------9---------------------------------------|
A-------------9h11----------------11-9-------------- <----|
E--11-11---11----------11-11---11-------------------------|

G------------------------------------------------------------------|
D-----------------9------------------------------------------------|
A-------------9h11----------------11-9-------------- <-------------|
E--11-11---11----------11-11---11-----11------------ <--- this "11-| is quickly
                                                         thrown in
G-------------------------|
D----------9--------------|
A--7-7--7h9-9--7-7--7-9---|
E----------------------9--| (((((X2))))

G---------------------------------------------------------|
D-----------------9--------------9------------------ <----|
A-------------9h11----------------------------------------|
E--11-11---11----------11-11---11-------------------------|

G---------------------------------------------------|
D-----------------9---------------------------------|
A-------------9h11---------------9h11---------------|
E--11-11---11----------11-11---11----11-------------|



2:47
---------------------------------------------------|
---------------------------------------------------|
--77~--77~--77~--77~------9-9-9------9-9-9---------|
-------------------------------4~---------4~-------|

3:00
G---------------------------------------------------|
D---------------------------------------------------|
A--7~---777-7-7---7-7---7-7-------------------------|
E---------------------------------------------------|

G---------------------------------------------------|
D--------------------------------9------------------|
A--7~---777-7-7---7-7---7-7---7-9-------------------|
E---------------------------------------------------|

G------------------------------------------------------------|
D-------9s11-----------9~------97----------------------------|
A--7~--------9-7----7h9----7h9---7-----9~-----9-7~--9-7~---7-|
E-----------------------------------7h9---7h9----------------|

"AND EVERYBODYSGOTTA SHINE ON"
G---------------REST--------------------------------|
D---------------REST--------------------------------|
A---------------REST--------------------------------|
E---------------REST--------------------------------|

3:52 "walkin down dayglow.." ( this part is like a bass solo)
G-----------------------------------------------------------------|
D-----------------------------------------------------------------|
A------7h9s11~----------------------------------------------------|
E--7h9---------9h11~----------------------------------------------|

G-----------------------------------------------------------------|
D-----------------------------------------------------------------|
A------7h9s11~--9s11~--11p9--7~--9-9-9-9-----7~-------------------|
E--7h9------------------------------------7h9---------------------|

G-----------------------------------------------------------------|
D-------------------------------------9---------------------------|
A--9-9-9-9--------7h9s11--------7h9s11-11--9--11--9-7~------------|
E-----------9--11---------9--11-----------------------------------|

G-----------------------------------------------------------------|
D------------------------------------------------9h11-------------|
A--9-9-9-9------7~--9-9-9-9---------------7h9s11-------11-9-7-----|
E-----------7h9-------------9--11~--9--11-------------------------|

G-----------------------------------------------------------------|
D-----------------------------------------------------------------|
A-9-9-9-9----777777777---9-9-9-9----7-7-77---7--7--7---7----------|
E---------7h9--------------------7h9------------------------------|

            
            
Suggest correction
Creating personal tab
Creating personal tab
You can edit any tab online and save it as your Personal.

You can edit, replace or remove any tab part or add personal notes – all changes will be seen only by you.

Personal tabs can be accessed anytime from any device, even offline.
Learn more »
Give kudos to tab author, rate the tab!
1 2 3 4 5
comments
print report bad tab
guest
You may want to rate the tab now too:
select rating
Wanna post a correction for this tab? Suggest correction