Oops, an error
Loading. Please wait.

Knights tab

version 1
version 1

Whole song

Interactive

39,878 views 27 this week
6 commentsread comments
1 2 3 4 5
x 13
add to favorites
×
Save as Personal and add changes to this tab that will be seen only by you. Learn more ›
×
You can save this tab as Personal to edit and correct it or add notes. All changes will be seen only by you. Learn more »
launch autoscroll
font size
0
reset
how to read this tab
guitar tuner
edit
Autoscroll
slow
fast
+/-
esc
set tempo
stop
Author
-------------------------------------------|
                 Knights - minus the bear -|
Tabbed by:nibbleschew
Email: fuzzycheese100@yahoo.com

Tuning:EADGBE


Guitar 1: Dave
-----------------------IMPORTANT
*Dave Knudson has 4 DL-4's and puts them to use, I personally have 2 and they
work great with the boss giga delay... anyways,
now the beginning riff is done with some moderate DL-4 work if your familiar with it. What
you do is you find the time of the song, put it on half speed, tap the recording to one  
then
take off the half speed, and play a D on the A string and stop recording. then..

Tip: I'm pretty sure its in 6/8..

Riff 1:
D|-----------------------------------------------------------------------------|
A|--2--5-5-2-(hit DL-4 so it sounds like)-555555 (then stop)-------------------|
E|-----------------------------------------------------------------------------|

Riff 2: Delay: Set to Sweep Echo, tap the time along with song...
e|---------------------------------------|
B|---------------------------------------|
G|---------------------------------------|
D|--11--11h12--11-9----------------------|
A|------------------12121212121212-10-9--|
E|---------------------------------------|

Riff 3: Moderate reverb, no dramatic delay
e|-----------------------|----------------21-----|
B|----19-----------------|--19-------------------|
G|--------18--19--17-----|------18--19-----------|
D|--------------------16-|-----------------------|
A|-----------------------|-----------------------|
E|-----------------------|-----------------------|

Riff 4: I Play it with Sweep Echo 4x then No delay 4x but its up to you.
e|-------------------------------|
B|-------------------------------|
G|-----11--11--11p9-11p9---------|
D|-----11--11--11p9-11p9---------|
A|-------------------------------|
E|-------------------------------|

Riff 5:
e|--------------------------------------------|
B|--------------------------------------------|
G----------9----9-11-10-9---------------------|
D|-9-10-11---11-----------11-10---------------|
A|--------------------------------------------|
E|--------------------------------------------|
   Play 2x
e|------------------------------|-------------------------19----|
B|---12--1212-14-b14b14b14b14---|-12--12-12-14-b14--------------|
G|------------------------------|-------------------------------|
D|------------------------------|-------------------------------|
A|------------------------------|-------------------------------|
E|------------------------------|-------------------------------|
 * Each time you bend the C#(14), It should sound like a D(15), then bend back down to 
Play Entire Riff 2x

Riff 6:
e|----------------------------------------------------------------19-----------|
B|--------------------17-17-17-----17---19-19-19--17---------------------------|
G|------------17--18------------18-------------------18-17h18p17-----17-16-----|
D|--16-16-16-------------------------------------------------------------------|
A|-----------------------------------------------------------------------------|
E|-----------------------------------------------------------------------------|
*After you play this 4x, there are other parts when it is played an octave lower, but
transcribe it yourself please cause I'm way to lazy lol.


Guitar 2: Jake
After going through Dave's part, you'll come to realize Jake's part is simplier, but
a lot of work for the man seeing as he has to sing as well.

Riff 1:
e|--------------9------------------|
B|--12------10-----12---------10---|
G|------11-------------9--11-------|
D|---------------------------------|
A|---------------------------------|
E|---------------------------------|

Riff 2:
e|--------------------------------------|
B|--------------------------------------|
G|---9----x-x-xxx--9--11----------------|
D|---x----x-x-xxx--x--x-----------------|
A|---7----x-x-xxx--7--9-----------------|
E|--------------------------------------|
* the muting in the middle is optional.. although it may sound incorrect, listen
;)

Riff 3: Same as Dave's only an octave lower
e|-----------------------|-------------9-------|
B|----7------------------|-7-------------------|
G|-------6--7----5-------|----6--7-------------|
D|------------------4----|---------------------|
A|-----------------------|---------------------|
E|-----------------------|---------------------|

Riff 4:
e|-------------------------------|
B|-------------------------------|
G|-----11--11--11p9-11p9---------|
D|-----11--11--11p9-11p9---------|
A|-------------------------------|
E|-------------------------------|

Riff 5:
e|--------------------------------------------|
B|--------------------------------------------|
G----------9----9-11-10-9---------------------|
D|-9-10-11---11-----------11-10---------------|
A|--------------------------------------------|
E|--------------------------------------------|
   Play 2x
e|------------------------------|-------------------------19----|
B|---12--1212-14-b14b14b14b14---|-12--12-12-14-b14--------------|
G|------------------------------|-------------------------------|
D|------------------------------|-------------------------------|
A|------------------------------|-------------------------------|
E|------------------------------|-------------------------------|
 * Each time you bend the C#(14), It should sound like a D(15), then bend back down to 
Play Entire Riff 2x

Riff 6:
e|----------------------------------------------------------------19-----------|
B|--------------------17-17-17-----17---19-19-19--17---------------------------|
G|------------17--18------------18-------------------18-17h18p17-----17-16-----|
D|--16-16-16-------------------------------------------------------------------|
A|-----------------------------------------------------------------------------|
E|-----------------------------------------------------------------------------|
*After you play this 4x, there are other parts when it is played an octave lower, but
transcribe it yourself please cause I'm way to lazy lol.

| /  slide up
| \  slide down
| h  hammer-on
| p  pull-off
| ~  vibrato
| +  harmonic
| x  Mute note
===============================================================================

  Contact:
-------------------------
  I'm open for criticizm,
  please comment, I'll update if/when errors are found.
  you can also contact me at...
  fuzzycheese100@yahoo.com OR
  myspace.com/add92x
Suggest correction
Creating personal tab
Creating personal tab
You can edit any tab online and save it as your Personal.

You can edit, replace or remove any tab part or add personal notes – all changes will be seen only by you.

Personal tabs can be accessed anytime from any device, even offline.
Learn more »
comments
print report bad tab
6 comments total. Showing first comments.
0 reply
skizm699 10 Aug 03, 2007 08:24 PM

cool. get that solo!

+2 reply
YouAreNotTheSun 134 Sep 05, 2007 03:52 PM

for anyone curious, here's that part that is played an octave lower near the end of the song.

e|-----------------------------------------------------------------------------|
B|-----------------------------------------------------------------------------|
G|----------------------------------------------------------------16-----------|
D|--------------------14-14-14-----14---16-16-16--14---------------------------|
A|------------15--16------------16-------------------16-15h16p15-----15-14-----|
E|--14-14-14-------------------------------------------------------------------|

+5 reply
redheadguy719 10 May 23, 2008 04:12 PM

I think you're only playing some of the notes of that intro:

e|---------------------------------------|
B|---------------------------------------|
G|--4--2-2--4--2-2-2-2-2-2-2-2-----------|
D|--0--0-0--0--0-0-0-0-0-0-0-0-----------|
A|--2--0-0--2--0-0-0-0-0-0-0-0-----------|
E|---------------------------------------|

guest
You may want to rate the tab now too:
select rating
Wanna post a correction for this tab? Suggest correction