Oops, an error
Loading. Please wait.

Secret Country bass

6,067 views 1 this week
no commentswrite comment
1 2 3 4 5
x 4
add to favorites
×
Save as Personal and add changes to this tab that will be seen only by you. Learn more ›
×
You can save this tab as Personal to edit and correct it or add notes. All changes will be seen only by you. Learn more »
launch autoscroll
font size
0
reset
guitar tuner
edit
Autoscroll
slow
fast
+/-
esc
set tempo
stop
Author
Artist: Minus The Bear
Song: Secret Country
Album: OMNI
Tabbed by: Dave Sheehan (daveys14 [at] hotmail.com)


Please rate this tab :)


=====
INTRO (0:03)
=====


G|-4-----4-----4------|
D|--------------------|
A|----------------2---|
E|---2-----0----------|

====
RIFF (0:05)
====

G|------|-----1--|-1------|---2-4--4----|
D|------|---2----|---2-4--|-4-----------|
A|-2-4--|-4------|--------|----------2--|
E|------|--------|--------|-------------| x8


=====
VERSE (0:58)
=====

G|------|------|-----1--|------|-1------|------|---2-4-|-4----4----|
D|------|------|---2----|------|---2-4--|------|-4-----|-----------|
A|-2-4--|------|-4------|------|--------|------|-------|---2----2--|
E|------|------|--------|------|--------|------|-------|-----------| x2

=========
CHORUS 1 (01:25)
=========

G|------|-----1--|-1------|---2-4--4----|
D|------|---2----|---2-4--|-4-----------|
A|-2-4--|-4------|--------|----------2--| 
E|------|--------|--------|-------------| x3

G|------|-----1--|-1------|-4-----4-----4------|--------|
D|------|---2----|---2-4--|--------------------|--------|
A|-2-4--|-4------|--------|----------------2---|--2-2-2-|
E|------|--------|--------|---2-----0----------|--------|


========
vERSE (01:53)
========


G|------|------|-----1--|------|-1------|------|---2-4-|-4----4----|
D|------|------|---2----|------|---2-4--|------|-4-----|-----------|
A|-2-4--|------|-4------|------|--------|------|-------|---2----2--|
E|------|------|--------|------|--------|------|-------|-----------| x2


=========
CHORUS 2 (02:19)
=========

G|--------|-----1--1-|-1--------|---2-4--4----|
D|--------|---2------|---2-4----|-4-----------|
A|-2-4--4-|-4--------|----------|----------2--|
E|--------|----------|----------|-------------|

G|--------|-----1----|-1--------|---2-4--4----|
D|--------|---2------|---2-4----|-4-----------|
A|-2-4----|-4--------|----------|----------2--| 
E|--------|----------|----------|-------------|

G|--------|-----1--1-|-1-1------|---2-4--44---|
D|--------|---2------|----2/4-4-|-4-----------|
A|-2-4--4-|-4--------|----------|----------2--|
E|--------|----------|----------|-------------|

G|--------|-----1--1-|-1-1------|-4-----4-----4--------|
D|--------|---2------|----2/4-4-|----------------------|
A|-2-4--4-|-4--------|----------|----------------2-----|
E|--------|----------|----------|---2-----0------------|


======
BRIDGE (02:49)
======

G|---------|----------|-----------|-----------|
D|---------|----------|-2---------|-----------|
A|-4-------|-4--------|-----------|-2---------|
E|---------|----------|-----------|-----------| x2

G|---------|----------|-----------|-----------|
D|------2--|----------|-------2---|-----------|
A|-4-------|--2-----0-|--4--------|-2-2-0-----|
E|---------|----------|-----------|-----------|

G|---------|----------|-----------|-----------|
D|---------|----------|-----------|-----------|
A|-2-4-----|----------|-2-4-------|-----------|
E|---------|----------|-----------|-----------|


=====
VERSE (03:15)
=====

G|------|------|-----1--|------|-1------|------|---2-4-|-4----4----|
D|------|------|---2----|------|---2-4--|------|-4-----|-----------|
A|-2-4--|------|-4------|------|--------|------|-------|---2----2--|
E|------|------|--------|------|--------|------|-------|-----------|

G|------|------|-----1--|-1----|-1------|------|---2-4-|-----------|
D|------|------|---2----|------|---2-4--|-4----|-4-----|-----------|
A|-2-4--|-4----|-4------|------|--------|------|-------|-2---------|
E|------|------|--------|------|--------|------|-------|-----------|


=========
CHORUS 3 (03:41)
=========

G|--------|----------|----------|-----------------|
D|--------|-----2--2-|-2-2-4--4-|-4-4-2----4-2----|
A|-2-4--4-|-4-4------|----------|------4-2----4-2-|
E|--------|----------|----------|-----------------|

G|--------|----------|----------|---2-4--4----|
D|--------|-----2--2-|-2-2-4--4-|-4-----------|
A|-2-4--4-|-4-4------|----------|----------2--|
E|--------|----------|----------|-------------|

G|--------|-----1--1-|-1--------|---2-------2-------|
D|--------|---2------|---2/4-4--|-4---4-2-----4-2---|
A|-2-4--4-|-4--------|----------|---------4-------4-|
E|--------|----------|----------|-------------------|

G|--------|-----1--1-|-1-1------|-4-----4-----4------|--------|
D|--------|---2------|-----2-4--|--------------------|--------|
A|-2-4--4-|-4--------|----------|----------------2---|-2-2-2--|
E|--------|----------|----------|---2-----0----------|--------|


=====
OUTRO (04:09)
=====

No bass until 04:22.

G|---------|
D|---------|
A|-4-------| (hold this note)
E|---------|

=====
04:35
=====

G|---------|----------|-----------|-----------|
D|---------|----------|-2---------|-----------|
A|-4-------|-4--------|-----------|-2---------| (repeat many times)
E|---------|----------|-----------|-----------|

======
05:27
======

G|---------|
D|---------|
A|-2-4-----|
E|---------|

            
            
Suggest correction
Creating personal tab
Creating personal tab
You can edit any tab online and save it as your Personal.

You can edit, replace or remove any tab part or add personal notes – all changes will be seen only by you.

Personal tabs can be accessed anytime from any device, even offline.
Learn more »
comments
print report bad tab
guest
You may want to rate the tab now too:
select rating
Wanna post a correction for this tab? Suggest correction