Oops, an error
Loading. Please wait.

Steel And Blood Tab

6,283 views 9 this week
2 commentsread comments
1 2 3 4 5
accurate
x 4
add to favorites
launch autoscroll
font size
0
reset
how to read this tab
guitar tuner
Autoscroll
slow
fast
+/-
esc
set tempo
stop
Help us to improve Ultimate-Guitar.com Take our survey!
×
Contributor
Difficulty
ptkc123 117
novice
-------------------------------------------------------------------------------
                             STEEL AND BLOOD - Minus the Bear
-------------------------------------------------------------------------------
Tabbed by: jbb
E-mail: jordan.bbolen@gmail.com

Tuning: Standard



Intro/Verses
------------

e|---------------------------------------------------------------|
B|---------------------------------------------------------------|
G|-8--8--9--9-----6--6--8-----4--4--6--6--3--3-------------------|
D|-x--x--x--x-----x--x--x-----x--x--x--x--x--x-------------------|
A|-6--6--7--7-----4--4--6-----2--2--4--4--1--1-------------------|
E|-0--0--0--0-----0--0--0-----0--0--0--0--0--0-------------------|


Chorus
------
    
{Figure 1}
 
Gtr. 1                "Two   be--come       ooone"
e|-----0--0--0--0---------------------------------------|
B|-----0--5--0--5---------------------------------------|
G|-----4--4--4--4------11----8----6---(18)--8--8--------|
D|-----4--4--4--4-------x----x----x-OR(x)---x--x--------|
A|-----0--0--0--0-------9----6----4---(16)--6--6--------|
E|------------------------------------------------------|  
                                                              
Gtr. 2                                                          
e|-----0--0--0--0---------------------------------------|     
B|-----0--0--0--0---------------------------------------|   
G|-----1--1--1--1--------SAME CHORDS AS GTR 1 ABOVE-----|
D|-----2--2--2--2---------------------------------------|
A|-----2--2--2--2---------------------------------------|
E|-----0--0--0--0---------------------------------------|


{Figure 2}

Gtr. 1                 "Cacophony of a car crash "
e|-----0--0--0--0---------------------------------------|
B|-----0--5--0--5---------------------------------------|
G|-----4--4--4--4-------8----6----11---6---4--4---------|
D|-----4--4--4--4-------x----x----x----x---x--x---------|
A|-----0--0--0--0-------6----4----9----4---2--2---------|
E|------------------------------------------------------|  
                                                              
Gtr. 2                                                          
e|-----0--0--0--0---------------------------------------|     
B|-----0--0--0--0---------------------------------------|   
G|-----1--1--1--1--------SAME CHORDS AS GTR 1 ABOVE-----|
D|-----2--2--2--2---------------------------------------|
A|-----2--2--2--2---------------------------------------|
E|-----0--0--0--0---------------------------------------|





Pre-Bridge
----------

Gtr. 1
e|----------------------------------9----------------9-11-12-(x8)-12\--------|
B|-------------------9-11-12--11-9----9--(x3)-THEN---------------------------|
G|---8--8--9--9--------------------------------------------------------------|
D|---x--x--x--x--------------------------------------------------------------|
A|---6--6--7--7--------------------------------------------------------------|
E|---0--0--0--0--------------------------------------------------------------| 
                                                                                 
Gtr. 2                                                                             
e|---------------------------------------------------------------------------|   
B|---------------------------------------------------------------------------| 
G|---8--8--9--9--------------------------------------------------------------|
D|---x--x--x--x--------------------------------------------------------------|
A|---6--6--7--7------------------4------------------4--6--7-(X8)-7\----------|
E|---0--0--0--0------4-6-7--6-4----4--(X3)--THEN-----------------------------|



Bridge
------


Gtr.1
e|-------------------------------------------------------|
B|-------------------------------------------------------|
G|--11--11---11--8--8---8--6--6--6-----------------------|
D|--x---x----x---x--x---x--x--x--x----6--8--9------------|
A|--9---9----9---6--6---6--4--4--4----x--x--x------------| 
E|--0---0----0---0--0---0--0--0--0----4--6--7------------|   
                                                              
                                                                
Gtr.2                                                         
e|-------------------------------------------------------|   
B|-------------------------------------------------------| 
G|--11--11---11--8--8---8--18--18--18--------------------|
D|--x---x----x---x--x---x--x---x---x----6--8--9----------|
A|--9---9----9---6--6---6--16--16--16---x--x--x----------|
E|--0---0----0---0--0---0--0---0---0----4--6--7----------|


Repeat Chorus after Bridge until the end of the song


************************************

| /   slide up
| \   slide down
| h   hammer-on
| p   pull-off
| ~   vibrato
| +   harmonic
| x   Mute note
| b   Bend
| pb  Pre-bend
| br  Bend release
| pbr Pre-bend release
| brb Bend release bend

************************************
comments
print report bad tab
2 comments total.
0 reply
The_Stain 34 wrote on June 14 2013, 06:38 am

Kind of, for the first part of the chorus it's:

e|-----0--0--0--0---------------------------------------|
B|-----0--5--0--5---------------------------------------|
G|-----4--4--4--4------11----8----8----6---8--8---------|
D|-----4--4--4--4-------x----x----x----x---x--x---------|
A|-----0--0--0--0-------9----6----6----4---6--6---------|
E|------------------------------------------------------|

and for the second part it's

e|-----0--0--0--0---------------------------------------|
B|-----0--5--0--5---------------------------------------|
G|-----4--4--4--4-------8----6---6----8----4--4---------|
D|-----4--4--4--4-------x----x---x----x----x--x---------|
A|-----0--0--0--0-------6----4---4----6----2--2---------|
E|------------------------------------------------------|

0 reply
ptkc123 117 wrote on September 24 2013, 10:32 am

^ That does sound better. Thank you.

I want to post or [tab]
guest
You may want to rate the tab now too:
select rating
Please do not post tabs as comments. Select "correction" instead!