Oops, an error
Loading. Please wait.

Big Boy Tab

version 1
version 1

Intro

Whole song

213 views 1 this week
1 commentread comment
1 2 3 4 5
2 more votes to show rating
add to favorites
launch autoscroll
font size
0
reset
how to read this tab
guitar tuner
×
Best way to learn
"Big Boy"
Autoscroll
slow
fast
+/-
esc
set tempo
stop
Artist : Minuteman
Album  : Resigned to Life ('2002)
Song   : Big Boy (Track #2/10)

this bands official website is www.minutemanmusic.co.uk

there a new british band and i think im the first to tab one of there songs!
Ok so this is my interperatation of the riff in minutemans "big boy"
its probably played higher up the fret board but it sounds ok to me, this is a
top song and is used in the premiership's "goals round-up" which makes it even
better!

e--------------------------------------------
B--------------------------------------------
G----------------------------2(bend up)-2----
D--------2--5--2--5---- 2h5------------------
A----2h5------------3----------------------3-
E-0------------------------------------------
Suggest correction
Give kudos to tab author, rate the tab!
1 2 3 4 5
comments
print report bad tab
1 comment total.
0 reply
Crashland 30 Apr 18, 2003 08:00 PM

i reckon it could be this as well.


e---------------------------------------
B---------------------------------------
G---------0-0-------0-3(half bend up)-0-
D-------3-------0h3---------------------
A---3h5-------3-------------------------
E-0-------------------------------------

guest
You may want to rate the tab now too:
select rating
Wanna post a correction for this tab? Suggest correction