Oops, an error
Loading. Please wait.

Anxious Mofo bass

version 2
version 2

Whole song

46 views 1 this week
no commentswrite comment
1 2 3 4 5
3 more votes to show rating
add to favorites
×
Save as Personal and add changes to this tab that will be seen only by you. Learn more ›
×
You can save this tab as Personal to edit and correct it or add notes. All changes will be seen only by you. Learn more »
launch autoscroll
font size
0
reset
guitar tuner
edit
Autoscroll
slow
fast
+/-
esc
set tempo
stop
Anxious Mofo
Double Nickels On The Dime
Minutemen
Mike Watt bass
my timing is off here, but listen and you can get it pretty easily.

[Verse]
G|----------------------|-------------------|
D|----------------------|---7---------------|
A|----------------------|-----7-6------5-7--| x5
E|--5p4--5p4--5p4--5p4--|-5-------7-7-------|
 
[Chorus]
G|------------9-/12-11-9--|
D|----6—7-/9--------------|  
A|--7--7------------------| x2
E|------------------------|
 
G|--------------9-----11-12-12-12--|
D|-----9h12--10---/12--------------|
A|-10------------------------------|
E|---------------------------------|  

G|--------------9-----11-12-12-12--|--------------|
D|-----9h12--10---/12--------------|-7---7--7-----|
A|-10------------------------------|---9----------|
E|---------------------------------|----------7---|

[Verse]
G|----------------------|-------------------|
D|----------------------|---7---------------|
A|----------------------|-----7-6------5-7--| x5
E|--5p4--5p4--5p4--5p4--|-5-------7-7-------|

[Solo]
G|----------------------|-----------------|
D|--------------4--6-7--|---9-8-7---------|
A|-----1--5-7-----------|---------9--7-5--| x4
E|--5-------------------|-7---------------| 

[Outro]
G|--------------|
D|--------------|
A|--------------|
E|--5-----------|


************************************

| p  Pull-off
| /  Slide up
| h  Hammer-on

************************************
Suggest correction
Creating personal tab
Creating personal tab
You can edit any tab online and save it as your Personal.

You can edit, replace or remove any tab part or add personal notes – all changes will be seen only by you.

Personal tabs can be accessed anytime from any device, even offline.
Learn more »
Give kudos to tab author, rate the tab!
1 2 3 4 5
comments
print report bad tab
guest
You may want to rate the tab now too:
select rating
Wanna post a correction for this tab? Suggest correction