Oops, an error
Loading. Please wait.

History Lesson Part Two bass

4,112 views 15 this week
1 commentread comment
1 2 3 4 5
x 4
add to favorites
×
Save as Personal and add changes to this tab that will be seen only by you. Learn more ›
×
You can save this tab as Personal to edit and correct it or add notes. All changes will be seen only by you. Learn more »
launch autoscroll
font size
0
reset
guitar tuner
backing track
0:00
0:00
edit
Autoscroll
slow
fast
+/-
esc
set tempo
stop
Minutemen
History Lesson Part Two
Double Nickels On The Dime

-------------------------------|
-------------------------------|
3-----2--------------------3---|
----------------3-----1--5---5-|

-------------------------------|
-------------------------------|
3-----2--------------------3---|
----------------3-----1--5---5-|

            
            
Suggest correction
Creating personal tab
Creating personal tab
You can edit any tab online and save it as your Personal.

You can edit, replace or remove any tab part or add personal notes – all changes will be seen only by you.

Personal tabs can be accessed anytime from any device, even offline.
Learn more »
comments
print report bad tab
1 comment total.
+1 reply
SmarticusRex 51 Oct 06, 2011 12:27 PM

The 'chorus' type riff is missing.

--------------------------------------9-----
-------------------7---5---3---7/10-------10
---------------3----------------------------
---3---1---5--------------------------------

guest
You may want to rate the tab now too:
select rating
Wanna post a correction for this tab? Suggest correction