Oops, an error
Loading. Please wait.

Nature Without Man bass

157 views 3 this week
no commentswrite comment
1 2 3 4 5
3 more votes to show rating
add to favorites
×
Save as Personal and add changes to this tab that will be seen only by you. Learn more ›
×
You can save this tab as Personal to edit and correct it or add notes. All changes will be seen only by you. Learn more »
launch autoscroll
font size
0
reset
guitar tuner
edit
Autoscroll
slow
fast
+/-
esc
set tempo
stop
Author
Difficulty
Artist - Minutemen

Song - Nature Without Man

Tabbed By : Rufiodies

e-mail: Rufiodies@gmail.com  

Tuning: Standard 

Intro
Guitar plays for 2 measures then bass comes in

G|-----------------------|
D|--7-------7-9----------|
A|----9-7-9--------------|
E|-----------------------|

Verse

G|--------------------------------|
D|--------------------------------|
A|----5-------5-------5-------5---|
E|--7---5---7---5---7---5---7---5-|

Then this again

G|-----------------------|
D|--7-------7-9----------|
A|----9-7-9--------------|
E|-----------------------|

Then the verse again
You get the idea
G|--------------------------------|
D|--------------------------------|
A|----5-------5-------5-------5---|
E|--7---5---7---5---7---5---7---5-|

The this break down part
G|-----------------------|
D|-----------------------| x 3
A|-----------------------|
E|--7--7--7--7-----------|

Then this on the 4th measure.
G|-----------------------|
D|-----------------------|
A|-----------------------|
E|--7--7--7--7--0--------|


Then the outro which is a variation on the intro

G|-----------------------|
D|--7-------7-9----------| X 3
A|----9-7-9--------------|
E|-----------------------|

Then this once, hold the 5 on the E string
G|------------------------|
D|--7---------------------|
A|-----9------------------|
E|--------5---------------|

And thats it!

Really simple, I probably didn't need to make a tab, but I remember when I had no ear so hopefully this helps!

The Pied Piper! The Heart and Mind!
Suggest correction
Creating personal tab
Creating personal tab
You can edit any tab online and save it as your Personal.

You can edit, replace or remove any tab part or add personal notes – all changes will be seen only by you.

Personal tabs can be accessed anytime from any device, even offline.
Learn more »
Give kudos to tab author, rate the tab!
1 2 3 4 5
comments
print report bad tab
guest
You may want to rate the tab now too:
select rating
Wanna post a correction for this tab? Suggest correction