Oops, an error
Loading. Please wait.

Gone To Bed At 21 tab

19 views 3 this week
no commentswrite comment
1 2 3 4 5
3 more votes to show rating
add to favorites
×
Save as Personal and add changes to this tab that will be seen only by you. Learn more ›
×
You can save this tab as Personal to edit and correct it or add notes. All changes will be seen only by you. Learn more »
launch autoscroll
font size
0
reset
how to read this tab
guitar tuner
edit
Autoscroll
slow
fast
+/-
esc
set tempo
stop
Author
Difficulty
-------------------------------------------------------------------------------

                     Gone To Bed At 21 - Miracle Legion

-------------------------------------------------------------------------------
Album: Portrait of a Damaged Family
Tabbed by: Estuary
Email: lreaper3@yahoo.com

Tuning: Standard

Intro/Verse:
    Dsus2
e|----------5------------------------|
B|------5-----5---------5-----5------|
G|----7-----------7---7-----7-----7--| (x4)
D|--0-----0-----0---0-----0-----0----|
A|-----------------------------------|
E|-----------------------------------|

    C  C        A A
e|--0--0---x-x--0-0--|
B|--1--1---x-x--2-2--|
G|--0--0---x-x--2-2--|
D|--2--2---x-x--2-2--|
A|--3--3---x-x--0-0--|
E|-------------------|

Chorus:
D            C            D       
I joined the Army just to please her
       C              D
Put my ideas in the freezers
        C                    D
My love letters in the trunk
        C
Gone to bed at 21


Solo (On acoustic):
e|----------------------------------|
B|----------------------------------|
G|-5-5-5-5-5-5-5-4-2-0----7---------|
D|----------------------0----5-4-0--|
A|----------------------------------|
E|----------------------------------|

e|-----------------------------------|
B|-----------------------------------|
G|--5-55-5-4-2p0-0---7--0-------0-2--|
D|-----------------0------4-0--------|
A|-----------------------------------|
E|-----------------------------------|
Suggest correction
Creating personal tab
Creating personal tab
You can edit any tab online and save it as your Personal.

You can edit, replace or remove any tab part or add personal notes – all changes will be seen only by you.

Personal tabs can be accessed anytime from any device, even offline.
Learn more »
Give kudos to tab author, rate the tab!
1 2 3 4 5
comments
print report bad tab
guest
You may want to rate the tab now too:
select rating
Wanna post a correction for this tab? Suggest correction