Oops, an error
Loading. Please wait.

Good For Her tab

28 views 1 this week
no commentswrite comment
1 2 3 4 5
3 more votes to show rating
add to favorites
×
Save as Personal and add changes to this tab that will be seen only by you. Learn more ›
×
You can save this tab as Personal to edit and correct it or add notes. All changes will be seen only by you. Learn more »
launch autoscroll
font size
0
reset
how to read this tab
guitar tuner
edit
Autoscroll
slow
fast
+/-
esc
set tempo
stop
Author
------------------------------------------------------------------------------- 

                         Good For Her - Miracle Legion

-------------------------------------------------------------------------------

Album: Portrait of a Damaged Family
Tabbed by: Estuary
Email: lreaper3@yahoo.com

Tuning: Standard

[Intro]

e|-------------------------------------------------------------|
B|--------8b10r----10p8----------------------10b12r------------|
G|--9-7-9---------------9-7-------------------------9-7-9-9s0--|
D|--9-7-7-------------------9-7--------------------------------|
A|------------------------------10-7----7-7--------------------|
E|-----------------------------------10------------------------|

She's gone for good
I'm so glad for her
So glad so glad so glad so glad


[Verse]

    E                       D                       C                       B
e|---------------------------------------------------------------------------------------------------|
B|--9-9-9-9-9-9-9-9-9-9-9-9-7-7-7-7-7-7-7-7-7-7-7-7-5-5-5-5-5-5-5-5-5-5-5-5-4-4-4-4-4-4-4-4-4-4-4-4--|
G|--9-9-9-9-9-9-9-9-9-9-9-9-7-7-7-7-7-7-7-7-7-7-7-7-5-5-5-5-5-5-5-5-5-5-5-5-4-4-4-4-4-4-4-4-4-4-4-4--|
D|--9-9-9-9-9-9-9-9-9-9-9-9-7-7-7-7-7-7-7-7-7-7-7-7-5-5-5-5-5-5-5-5-5-5-5-5-4-4-4-4-4-4-4-4-4-4-4-4--|
A|--7-7-7-7-7-7-7-7-7-7-7-7-5-5-5-5-5-5-5-5-5-5-5-5-3-3-3-3-3-3-3-3-3-3-3-3-2-2-2-2-2-2-2-2-2-2-2-2--|
E|---------------------------------------------------------------------------------------------------|

Good for her
Good for her
Good for her
Good for her
Good for her
Good for her
Good for her
Good for her


[Chorus A]

    C           D           E                       C           D
e|-----------------------------------------------------------------------------------|
B|--5-5-5-5-5-5-7-7-7-7-7-7-9-9-9-9-9-9-9-9-9-9-9-9-5-5-5-5-5-5-7-7-7-7-7-7----------|
G|--5-5-5-5-5-5-7-7-7-7-7-7-9-9-9-9-9-9-9-9-9-9-9-9-5-5-5-5-5-5-7-7-7-7-7-7----------|
D|--5-5-5-5-5-5-7-7-7-7-7-7-9-9-9-9-9-9-9-9-9-9-9-9-5-5-5-5-5-5-7-7-7-7-7-7----------|
A|--3-3-3-3-3-3-5-5-5-5-5-5-7-7-7-7-7-7-7-7-7-7-7-7-3-3-3-3-3-3-5-5-5-5-5-5----------|
E|--------------------------------------------------------------------------7-5-3-2--|

Good for her
But bad for me


[Verse]

Good for her
Good for her
Good for her
Good for her
Good for her
Good for her
Good for her
Good for her


[Chorus B]

    C           D           E                       C           D                   E
e|-------------------------------------------------------------------------------------|
B|--5-5-5-5-5-5-7-7-7-7-7-7-9-9-9-9-9-9-9-9-9-9-9-9-5-5-5-5-5-5-7-7-7-7-7-7------------|
G|--5-5-5-5-5-5-7-7-7-7-7-7-9-9-9-9-9-9-9-9-9-9-9-9-5-5-5-5-5-5-7-7-7-7-7-7---------1--|
D|--5-5-5-5-5-5-7-7-7-7-7-7-9-9-9-9-9-9-9-9-9-9-9-9-5-5-5-5-5-5-7-7-7-7-7-7---------2--|
A|--3-3-3-3-3-3-5-5-5-5-5-5-7-7-7-7-7-7-7-7-7-7-7-7-3-3-3-3-3-3-5-5-5-5-5-5---------2--|
E|--------------------------------------------------------------------------7-5-3-2-0--|

Good for her
But bad for me


[Solo]

e|--------------------------------|
B|----9-10-9---7-8-7---5-6-5------|
G|--9--------7-------5-------5-4--|
D|--------------------------------|
A|--------------------------------|
E|--------------------------------|

e|-----------------------------8-7--|
B|----9-10-9---7-8-7---5-6-5--------|
G|--9--------7-------5-------5------|
D|----------------------------------|
A|----------------------------------|
E|----------------------------------|


[Verse]

Gonna find out
Gonna
Gonna find out
Gonna


[Chorus A]

Good for her
But bad for me


[Chorus B]

Good for her
But bad for me


[Outro]

    E  D  C  B     E
e|--------------|-----|
B|--9--7--5--4--|--9--|
G|--9--7--5--4--|--9--|
D|--9--7--5--4--|--9--|
A|--7--5--3--2--|--7--|
E|--------------|-----|

so glad so glad so glad
Good for her
Good for her

************************************

| p  Pull-off
| r  Release
| b  Bend
| s  slide

************************************
Suggest correction
Creating personal tab
Creating personal tab
You can edit any tab online and save it as your Personal.

You can edit, replace or remove any tab part or add personal notes – all changes will be seen only by you.

Personal tabs can be accessed anytime from any device, even offline.
Learn more »
Give kudos to tab author, rate the tab!
1 2 3 4 5
comments
print report bad tab
guest
You may want to rate the tab now too:
select rating
Wanna post a correction for this tab? Suggest correction