Oops, an error
Loading. Please wait.

Homer tab

289 views 1 this week
no commentswrite comment
1 2 3 4 5
3 more votes to show rating
add to favorites
×
Save as Personal and add changes to this tab that will be seen only by you. Learn more ›
×
You can save this tab as Personal to edit and correct it or add notes. All changes will be seen only by you. Learn more »
launch autoscroll
font size
0
reset
how to read this tab
guitar tuner
edit
Autoscroll
slow
fast
+/-
esc
set tempo
stop
Author
Difficulty
-------------------------------------------------------------------------------

                            Homer - Miracle Legion

-------------------------------------------------------------------------------
Album: Portrait of a Damaged Family
Tabbed by: Estuary
Email: lreaper3@yahoo.com

Tuning: Standard

Verse:
e|------------------------------------|
B|----1---1---1---1---1---1--1h0------|
G|------0-------0-------0--------0----|
D|--3------------------------------0--|
A|----------3-------3-----------------|
E|------------------------------------|

Pre-chorus:
   Asus                   F     D
e|--0------------------|--1--|--2------|
B|--3----------1p0h1---|--1--|--3-(x4)-|
G|--2--(x15) -------0--|--2--|--2------|
D|--0------------------|--3--|--0------|
A|---------------------|--3--|---------|
E|---------------------|-----|---------|

Chorus:
A       C          G
 Just a little more 
D               A
She'd've been a homer 
       C          G
Just a little more 
D               A
She'd've been a homer 
       C          G
Just a little more 
D               A
She'd've been a homer 
       C          G
Just a little more 

She'd've been... 



On the MP3, it sounds like Mr. Ray arpeggiates each chord's (except D) notes on the B & G strings between 

strums, so if you want you could do that.

            
            
Suggest correction
Creating personal tab
Creating personal tab
You can edit any tab online and save it as your Personal.

You can edit, replace or remove any tab part or add personal notes – all changes will be seen only by you.

Personal tabs can be accessed anytime from any device, even offline.
Learn more »
Give kudos to tab author, rate the tab!
1 2 3 4 5
comments
print report bad tab
guest
You may want to rate the tab now too:
select rating
Wanna post a correction for this tab? Suggest correction