Oops, an error
Loading. Please wait.

The Depot Tab

7 views 1 this week
no commentswrite comment
1 2 3 4 5
3 more votes to show rating
add to favorites
launch autoscroll
font size
0
reset
how to read this tab
guitar tuner
Autoscroll
slow
fast
+/-
esc
set tempo
stop
Help us to improve Ultimate-Guitar.com Take our survey!
×
Author
Difficulty
intermediate
-------------------------------------------------------------------------------

                        The Depot - Miracle Legion

-------------------------------------------------------------------------------
Album: Portrait of a Damaged Family
Tabbed by: Estuary
Email: lreaper3@yahoo.com

Tuning: Standard

[Verse]
    Am C     D
e|--5--8-----10--|
B|--5--8-----10--|
G|--5--9-----11--|
D|--7--10----12--|
A|---------------|
E|---------------|

[Break] 0:26 - 0:30
  Csus4 C    G
e|--1---0----3--|
B|--1---1----3--|
G|--0---0----0--|
D|--3---2----0--|
A|--3---3----2--|
E|-----------3--|

[Chorus]
Csus4  x33011
C      x32010
G      320033

Csus4 C          G
        Until we meet again
Csus4 C G
        Stranger to stranger
Csus4 C        G
        Can we still be friends?
Csus4 C G
        Bury the anger

[Solo]
Heavy distortion.
e|--------------------------------------------------------|
B|--------------------------------------------------------|
G|--8b10r8----9b11-9p7-----------8-9b11r9b11r9b11r9vs2-2--|
D|---------------------9-9--3s1---------------------------|
A|-----------------------9--3s1---------------------------|
E|--------------------------------------------------------|

[Breakdown]
    Am C Asus2
e|--0--0--0--|
B|--1--1--3--|
G|--2--0--2--|
D|--2--2--0--|
A|--0--3--0--|
E|-----------|


************************************

| p  Pull-off
| r  Release
| b  Bend
| s  Shift slide

************************************

{Lyrics}
[Verse 1]
I know you want it and you want it now
But your daddy ain't got no money down
And a handshake, is a funny thing
Sure feels better with a wedding ring

[Verse 2]
I know he promised you a trip to Rome
But I think you'll be staying home
Are you happy now?
Until death, never had a chance

[Chorus 1]
Until we meet again
Stranger to stranger
Can we still be friends?
Bury the anger

[Verse 3]
Jack was heading for the junkyard
Your daddy ain't got no credit card
You understand you can't stick around
What should I do with your wedding gown?

[Chorus 2]
Until we meet again
Stranger to stranger
Can we still be friends?
Bury the anger

[Chorus 3]
Until we meet again
Stranger to stranger
Can we still be friends?
Bury the anger

[Solo]

[Breakdown]
You take the house
You take the pool
Send the kids off to a private school 
It's just the same as getting ???
And when in vain

[Chorus 4]
Until we meet again
Stranger to stranger
Can we still be friends?
Bury the anger

[Chorus 5]
Until we meet again
Stranger to stranger
Can we still be friends?
Bury the anger
Bury the anger
Bury the anger
Suggest correction
Give kudos to tab author, rate the tab!
1 2 3 4 5
comments
print report bad tab
guest
You may want to rate the tab now too:
select rating
Wanna post a correction for this tab? Suggest correction