Oops, an error
Loading. Please wait.

Dont Die In Me chords

by Mirah
28,640 views 21 this week
1 commentread comment
1 2 3 4 5
x 11
add to favorites
×
Save as Personal and add changes to this tab that will be seen only by you. Learn more ›
×
You can save this tab as Personal to edit and correct it or add notes. All changes will be seen only by you. Learn more »
launch autoscroll
font size
0
reset
transpose
0
reset
display chords
guitar tuner
edit
Autoscroll
slow
fast
+/-
esc
set tempo
stop
Author
Difficulty
Strumming
There is no strumming pattern for this song yet. and get +5 IQ
Artist: Mirah
Song: Don't Die in Me

Intro 2x
E|-------------------------------------------------------------------------|
B|-------------------------------------------------------------------------|
G|-------------------------------------------------------------------------|
D|---2--3--2--0--2---2--3--2—0---------------------------------------------|
A|-0---------------3------------2---2--3--2--0---------3-3-----------------|
E|--------------------------------3------------3-1-0-1----1--0--1—-0-------|

Am                C
The mighty continents divided
      G                    F
For a second time in all history
Am                     C
They found themselves just floating 
       G               F
Free from all responsibility
Am                           C
Without the weight of being whole
              G             F 
Some flew seaward all on their own
            Am                       
But if you want something back
          C
All the things that got cracked
          G                  F
When I felt like you lied to me
              Am
And all the million mistakes
         C
And the kicks in the face
                G             F
But I don't want you to die in me
               Am  
And when you say what you want
            C
That you need what you got
            G             F
Don't forget to be kind to me

Am        C             G          F

Am                           C
Now here's an apple with a tougher skin
                    G                       F
While you've got your pretty scales and fins you say
Am                        C
See all the things that I can do
   G                  F
So perfectly my body grew but in
Am                  C
All the time you felt so free
          G                   F
Did you forget how much you once loved me

           Am                       
And if you want something back
        C
All the things that got cracked
         G                 F
When I felt like you lied to me
             Am
And all the million mistakes
           C
And the kicks in the face
              G                F
But I don't want you to die in me
              Am  
So when you say what you want
            C
That you need what you got
           G               F
Don't forget to be kind to me
          G                F
I don't want you to die in me
Suggest correction
Creating personal tab
Creating personal tab
You can edit any tab online and save it as your Personal.

You can edit, replace or remove any tab part or add personal notes – all changes will be seen only by you.

Personal tabs can be accessed anytime from any device, even offline.
Learn more »
comments
print report bad tab
1 comment total.
0 reply
marysghosts 203 Jul 28, 2008 07:09 AM

The intro goes like this... Try it out, I think it sounds dead on (although the end is harder to hear).

Intro 2x
e-------------------------------------------------------------------------|
B--1--1--1--1--1--1----1--1--1--1--1--1----0--0--0--0--0------------------|
G-------------------------------------------------------------------------|
D----2--3--2--0--2-------2--3--2--0--2------------------------------------|
A-0-------------------3----------------------2--3--2--0-----3-3-----------|
E-----------------------------------------3---------------1-----0-0-0-1-0-|

guest
You may want to rate the tab now too:
select rating
Wanna post a correction for this tab? Suggest correction