Oops, an error
Loading. Please wait.

El Profe Bass

53 views 1 this week
no commentswrite comment
1 2 3 4 5
3 more votes to show rating
add to favorites
launch autoscroll
font size
0
reset
guitar tuner
×
Best way to learn
"El Profe"
Autoscroll
slow
fast
+/-
esc
set tempo
stop
Esta es mi primera transcripción, este tema es fácil
y divertido para tocar.
Escuchando el tema se saca rápido el timming.

h: hammer
p: pull off
/: slide


A partir de "...nunca te lo dije así..." va así:

Base 1

G-------------------------------------------------------
D-------------------------------------------------------
A-----6h7p6-----6h7p6-----6h7p6-----6h7p6-----4h5p4-----
E-7-7-------7-7-------7-7-------7-7-------5-5-------5-5-

G-------------------------------------------------------------
D-------------------------------------------------------------
A-----6h7p6-----6h7p6-----6h7p6-----6h7p6-----6h7p6-----6h7p6-
E-7-7-------7-7-------7-7-------7-7-------7-7-------7-7-------

G------------------------------
D------------------------------
A-----4h5p4----------6h7p6-----
E-5-5-------5-5--7-7-------7-7-

Puente 1

G-----------------------------------------------------------
D-----------------------------------------------------------
A-4-2-4--4-4-4--6-4-6--6-6-6--4-2-4--4-4-4--6-4-6-4-6-4-6-4-
E-----------------------------------------------------------

G------------------------------------------
D------------------------------------------
A-4-2-4--4-4-4--6-4-6--6-6-6--4-2-4--4-4-4-
E------------------------------------------

G---------------------
D---------------------
A-4/10-10-10-10-9-9-9-
E---------------------

Estribillo 1

G-----------------------------------------
D-----------------------------------------
A-----6h7p6-----6h7p6-----6h7p6-----6h7p6-
E-7-7-------7-7-------7-7-------7-7-------

G-----------------------------------
D-----------------------------------
A-----6h7p6-----6h7p6-----6h7p6-----
E-7-7-------7-7-------7-7-------7-7-

Solo de Guitarra

G-------------------------------------------------------
D-------------------------------------------------------
A-----8h9p8-----8h9p8-----8h9p8-----8h9p8-----6h7p6-----
E-9-9-------9-9-------9-9-------9-9-------7-7-------7-7-

G---------------
D---------------
A-----8h9p8-----
E-9-9-------9-9-

Base 2

G-------------------------------------------------------------
D-------------------------------------------------------------
A-8h9p8-----8h9p8-----8h9p8-----8h9p8-----8h9p8-----6h7p6-----
E-------9-9-------9-9-------9-9-------9-9-------7-7-------7-7-

G-------------------------------------------------------------
D-------------------------------------------------------------
A-----8h9p8-----8h9p8-----8h9p8-----8h9p8-----8h9p8-----8h9p8-
E-9-9-------9-9-------9-9-------9-9-------9-9-------9-9-------

G------------------------------
D------------------------------
A-----6h7p6----------8h9p8-----
E-7-7-------7-7--9-9-------9-9-

Puente 2

G------------------------------------------
D------------------------------------------
A-6-4-6--6-6-6--8-6-8--8-8-8--6-4-6--6-6-6-
E------------------------------------------

G------------------------
D------------------------
A-6/12-12-12-12-11-11-11-
E------------------------

Estribillo Final

G-----------
D-----------
A-----8h9p8-      x16
E-9-9-------

G-----
D-----
A-----
E-9-9-


En las transiciones pueden repetir la última nota,
incluso el bajistalo hace, para que no quede vacío.

Se lo dedico a mis viejos y hermanos.

Espero que les guste.
Suggest correction
Give kudos to tab author, rate the tab!
1 2 3 4 5
comments
print report bad tab
guest
You may want to rate the tab now too:
select rating
Wanna post a correction for this tab? Suggest correction