Oops, an error
Loading. Please wait.

Enamorada Tab

by Miranda
58 views 1 this week
no commentswrite comment
1 2 3 4 5
3 more votes to show rating
add to favorites
×
Save as Personal and add changes to this tab that will be seen only by you. Learn more ›
×
You can save this tab as Personal to edit and correct it or add notes. All changes will be seen only by you. Learn more »
save as personal
new!
launch autoscroll
font size
0
reset
how to read this tab
guitar tuner
Autoscroll
slow
fast
+/-
esc
set tempo
stop
este es el solo de la canción enamorada,los acordes estan correctos en la
version que estaba previa ,solo cabe mencionar que se tocan como quintas,
porque parece que algunos en el youtube aun no se percatan jeje.


e|-------------------------------------------------------------------------
B|----7-8-10-8-7-------7----------7---------------7------------------------
G|7-9------------9-7-9---9----7-9---7---------7-9--------7-9-10-9-7--------
D|-------------------------10---------10-9-10-------9-10------------10-9-10
A|-------------------------------------------------------------------------
E|-------------------------------------------------------------------------

e|---------------------------------------------------------------
B|---------------------------------------------------------------
G|-7-9-10-12-----------------------------------------------------
D|---------------------------------------------------------------
A|---------------------------------------------------------------
E|---------------------------------------------------------------
Suggest correction
Give kudos to tab author, rate the tab!
1 2 3 4 5
comments
print report bad tab
guest
Wanna post a correction for this tab? Suggest correction