Oops, an error
Loading. Please wait.

Hola Tab

38 views 3 this week
no commentswrite comment
1 2 3 4 5
3 more votes to show rating
add to favorites
launch autoscroll
font size
0
reset
how to read this tab
guitar tuner
Autoscroll
slow
fast
+/-
esc
set tempo
stop
Help us to improve Ultimate-Guitar.com Take our survey!
×
INTRO:
e|------------------------------------------------------------------
B|-15-15-15-15-13---13-13-13-13------15-15-15-15-13-------13--------
G|------------------------------15------------------15-15----15-14--
D|------------------------------------------------------------------
A|------------------------------------------------------------------
E|------------------------------------------------------------------

e|-------------------------------
B|-13-13-13-13-------------------
G|-------------15-14-14-15-14-12-
D|-------------------------------
A|-------------------------------
E|-------------------------------
[repite desde el principio]

"Hola, que tal, como te va?
Que frase más vulgar...
Con la que me voy a presentar.

Cuando a lo lejos oigo un Bong,
Yo sé que estás ahí.
Y de una u otra forma,
Seguro te vas a acercar a mí.

Quiero conocerte!
Cambiarías un poquito de mi suerte.
e|----------
B|1/3-------
G|-----1/3--
D|----------
A|----------
E|----------

Sigue la corriente,
El impulso de tu piel nunca te miente.

Ohh...
El disco de mi mente,
se reciente con tu corazón,
El disco de tu corazón!
El disco de tu corazón!

No ves que es necesario terminar en una habitación?
Invítame a tu habitación... ya!

INTRO de nuevo.

Si no tiene nada que ver,
Por dios disculpame!
No se ni como tuve tupé.

De proponermelo de hacer,
A [ch]A[/ch] primera vez.
Tan facil es decirlo,
Que no va ser tan facil que se dé.

Quiero conocerte!
Cambiarías un poquito de mi suerte.
e|----------
B|1/3-------
G|-----1/3--
D|----------
A|----------
E|----------

Sigue la corriente,
El impulso de tu piel nunca te miente.

Ohh...
El disco de mi mente,
se reciente con tu corazón,
El disco de tu corazón!
El disco de tu corazón!

No ves que es necesario terminar en una habitación?
Invítame a tu habitación... ya!

Pasemos a lo bueno,
Deshazte de tu ropa y dime:
e|---------------------------------------
B|--------------------------------------
G|15--14-12-----15--14-12----15-14-12---
D|----------15------------15------------
A|--------------------------------------
E|--------------------------------------
 "Uoh oh oh oh  uoh oh oh oh oh oh oh"
(Siguiendo la voz)

Muñeca te lo ruego!
Agitame la ropa y dime:
e|---------------------------------------
B|--------------------------------------
G|15--14-12-----15--14-12----15-14-12---
D|----------15------------15------------
A|--------------------------------------
E|--------------------------------------
 "Uoh oh oh oh  uoh oh oh oh oh oh oh"

Sigue la corriente,
El impulso de tu piel nunca te miente.

INTRO de nuevo

El disco de tu corazón! x2
Invítame a tu habitación, ya!

El disco de tu corazón! (varias veces)

Pasemos a lo bueno,
Deshazte de tu ropa y dime:
e|---------------------------------------
B|--------------------------------------
G|15--14-12-----15--14-12----15-14-12---
D|----------15------------15------------
A|--------------------------------------
E|--------------------------------------
 "Uoh oh oh oh  uoh oh oh oh oh oh oh"
(Siguiendo la voz)

Muñeca te lo ruego!
Agitame la ropa y dime:
e|---------------------------------------
B|--------------------------------------
G|15--14-12-----15--14-12----15-14-12---
D|----------15------------15------------
A|--------------------------------------
E|--------------------------------------
 "Uoh oh oh oh  uoh oh oh oh oh oh oh"


Pasemos a lo bueno!
Suggest correction
Give kudos to tab author, rate the tab!
1 2 3 4 5
comments
print report bad tab
guest
You may want to rate the tab now too:
select rating
Wanna post a correction for this tab? Suggest correction