Oops, an error
Loading. Please wait.

Perfecta Bass

by Miranda
252 views 1 this week
no commentswrite comment
1 2 3 4 5
3 more votes to show rating
add to favorites
launch autoscroll
font size
0
reset
guitar tuner
×
Best way to learn
"Perfecta"
Autoscroll
slow
fast
+/-
esc
set tempo
stop
Esta chida
Es la version con julieta venegas

comprendi
E|----3---|--3---3-|-3-3-5-0-5-|-51-1-1--|
A|--3---3-|-3--5---|--5--------|---------|
D|--------|--------|-----------|---------|
G|--------|--------|-----------|---------|

no me importo
E|--3h5--1-1-3-|-35-5-5-|-05--1-1-3-|
A|-----3-------|--------|---3-------|
D|-------------|--------|-----------|
G|-------------|--------|-----------|

eramos tan buenos amigos
E|--0-3-5-|-0-3-5-|-0-3-5-|-0-3-5-|-55-0-3--|
A|--------|-------|-------|-------|---------|
D|--------|-------|-------|-------|---------|
G|--------|-------|-------|-------|---------|

me aproveche
E|----0-3-|---0-3-|---0-3-|-03-0-5--|
A|--5-----|-5-----|-5-----|---------|
D|--------|-------|-------|---------|
G|--------|-------|-------|---------|

apesar de que
E|--0-3-5-|-50-3-5-|-0-3-5-|-0-5-3--|
A|--------|--------|-------|--------|
D|--------|--------|-------|--------|
G|--------|--------|-------|--------|

cuando caimos en
E|----0-3-|---0-3-|---0-3-|-55----|
A|--5-----|-5-----|-5-----|----2--|
D|--------|-------|-------|-------|
G|--------|-------|-------|-------|

Solo tu
E|----3-3-|-3-5-5-|-055-|-531-1-|-2-2-|-3-3-|-133-5---|
A|--3-----|-------|-----|-------|-----|-----|------5--|
D|--------|-------|-----|-------|-----|-----|---------|
G|--------|-------|-----|-------|-----|-----|---------|

como fue
E|------3-|-3-5-5-|-055-|-531-1-|-2-2-|-3-3-|-133-35--|
A|--3-3---|-------|-----|-------|-----|-----|---------|
D|--------|-------|-----|-------|-----|-----|---------|
G|--------|-------|-----|-------|-----|-----|---------|

E|--8/3--|
A|-------|
D|-------|
G|-------|

El tiempo que paso...
E|--3-3-5-0-5-|-51-1-1-|--01-1-3-|-35-5-5-|-05--1-1-3-|-3-5--|
A|---5--------|--------|-3-------|--------|---3-------|------|
D|------------|--------|---------|--------|-----------|------|
G|------------|--------|---------|--------|-----------|------|

entonces
E|----3---|--3---3-|-3-3-5-0-5-|-51-1-1--|
A|--3---3-|-3--5---|--5--------|---------|
D|--------|--------|-----------|---------|
G|--------|--------|-----------|---------|

sere tu
E|---01-1-3-|-0305-5-5-|-05--1-1-3-|
A|--3-------|----------|---3-------|
D|----------|----------|-----------|
G|----------|----------|-----------|

eramos tan buenos amigos
E|--3-0-5-|-0-3-5-|-0-3-5-|-0-3-5-|-55-0-3--|
A|--------|-------|-------|-------|---------|
D|--------|-------|-------|-------|---------|
G|--------|-------|-------|-------|---------|

me aproveche
E|----0-3-|---0-3-|---0-3-|-03-0-5--|
A|--5-----|-5-----|-5-----|---------|
D|--------|-------|-------|---------|
G|--------|-------|-------|---------|

apesar de que
E|--0-3-5-|-0-3-5-|-0-3-5-|-00-5-3--|
A|--------|-------|-------|---------|
D|--------|-------|-------|---------|
G|--------|-------|-------|---------|

cuando caimos en
E|----0-3-|---0-3-|---0-3-|-55----|
A|--5-----|-5-----|-5-----|----2--|
D|--------|-------|-------|-------|
G|--------|-------|-------|-------|

Solo tu
E|----3-3-|-3-5-5-|-055-|-531-1-|-2-2-|-3-3-|-3-5----|
A|--3-----|-------|-----|-------|-----|-----|----35--|
D|--------|-------|-----|-------|-----|-----|--------|
G|--------|-------|-----|-------|-----|-----|--------|

como fue
E|------3-|-3-35-5-|-55-|-531-1-|-2-2-|-3-3-|-133-35--|
A|--3-3---|--5-----|----|-------|-----|-----|---------|
D|--------|--------|----|-------|-----|-----|---------|
G|--------|--------|----|-------|-----|-----|---------|

Solo tu
E|----3-3-|-345-5-|-055-|-531-1-|-2-2-|-3-3-|----------|
A|--3-----|-------|-----|-------|-----|-----|-------5--|
D|--------|-------|-----|-------|-----|-----|-3/55-3---|
G|--------|-------|-----|-------|-----|-----|----------|

como fue
E|------3-|-35-5-|-55-|-531-1-|-2-|-23-3-|-133-35--|
A|--3-3---|------|----|-------|---|------|---------|
D|--------|------|----|-------|---|------|---------|
G|--------|------|----|-------|---|------|---------|

como fue
E|------3-|-35-5-|-155-|-531-1-|-2-2--|
A|--3-3---|------|-----|-------|------|
D|--------|------|-----|-------|------|
G|--------|------|-----|-------|------|

atte. miauricio gatolar
Suggest correction
Give kudos to tab author, rate the tab!
1 2 3 4 5
comments
print report bad tab
guest
You may want to rate the tab now too:
select rating
Wanna post a correction for this tab? Suggest correction