Oops, an error
Loading. Please wait.

Prisionero Tab

40 views 1 this week
no commentswrite comment
1 2 3 4 5
3 more votes to show rating
add to favorites
launch autoscroll
font size
0
reset
how to read this tab
guitar tuner
×
Best way to learn
"Prisionero"
Autoscroll
slow
fast
+/-
esc
set tempo
stop
Que onda compas, ahi les dejo esta rola que saque
(es la primera que he sacado)
que neta no me late,pero me dijo mi jefa si le podia
ayudar a sacarla en la guitarra, yo soy metalero
y creo que me salio bien, aver que les parece...

/.-Deslisar
~.-Vibrato
h(hold).-Mantener presionado

No.1
e----------------------------------------------------------
B----------------------------------------------------------
g---15-14--------------------------------------------------
D13------------17h16-16------------------------------------
A--------15~--------------18-17-16-17~---------------------
E-------------------------------------17/19~---------------
Comprendeme...............Ahora que todo cambio....

No.2
e----------------------------------------------------------
B----------------------------------------------------------
g---15-14--------------------------------------------------
D13------------17/19-17-16----15-16-17/19------------------
A---------15---------------21------------------------------
E----------------------------------------------------------
Me arrepenti...Y es verdad que termino.....

No.3
e----------------------------------------------------------
B----------------------------------------------------------
g-------------14/12-11-------------------------------------
D---19-18-12~----------14-12-13-15/17----------------------
A16--------------------------------------------------------
E----------------------------------------------------------
Pero yo sé....Que en el fondo te amaré.....

No.4
e----------------------------------------------------------
B-----------------10-------------9-------------------------
g11-11-10-8----10-------------10---9h11~-------------------
D-----------11----------10-11------------------------------
A----------------------------------------------------------
E----------------------------------------------------------
Entonces no pienses  pienses mal de mi...

e----------------------------------------------------------
B----------------------------------------------------------
g---15-13----13-12-----------------------------------------
D13----------------15-13-12h13-----------------------------
A---------15------------------13/15~-----------------------
E----------------------------------------------------------
Los celos  tu ilusion...

e----------------------------------------------------------
B----------------------------------------------------------
g-------------12/14----------------------------------------
D---20-19-13~-------17-16-16-14-16-17/19-------------------
A16--------------------------------------------------------
E----------------------------------------------------------
No dejan ver..Lo escencial entre los dos...

e----------------------------------------------------------
B----------------------------------------------------------
g---15-14--------------------------------------------------
D13----------19-17-16--------------------------------------
A---------15----------19-17h19/21~-------------------------
E----------------------------------------------------------
Estoy aqui...Y te juro se acabo...

e----------------------------------------------------------
B----------------------------------------------------------
g------------------14----------15--------------------------
D17-15-14-------16----------17----17-19~-------------------
A---------17-18-------17-18--------------------------------
E----------------------------------------------------------
Entonces olvidalo.....Perdoname y pasó...

*No.1
e----------------------------------------------------------
B------12-------13~----------------------------------------
g12-14----14-12---------12-14------------------------------
D--------------------14------------------------------------
A----------------------------------------------------------
E----------------------------------------------------------
Esque soy  un error...

*No.2
e----------------------------------------------------------
B----------------------------------------------------------
g---------------15-----------------------------------------
D16-18-19-17-16----------17-16~----------------------------
A------------------18-17-----------------------------------
E----------------------------------------------------------
Un tondo arrepentido que por hoy

*No.3
e----------------------------------------------------------
B----------------------------------------------------------
g----------------------------------------------------------
D16-15-13----------17-16-14--------------------------------
A---------16-15-15----------17-15--------------------------
E----------------------------------------------------------
A preferido invocar al olvido

*No.4
e----------------------------------------------------------
B----------------------------------------------------------
g----------------------------------------------------------
D18-16-15----17-19-21-19-17--------------------------------
A---------18---------------21~-----------------------------
E----------------------------------------------------------
Y suplicar de rodillas perdon...

*No.5
e----------------------------------------------------------
B------12-------13~----------------------------------------
g12-14----14-12--------12-14-------------------------------
D-------------------14-------------------------------------
A----------------------------------------------------------
E----------------------------------------------------------
Esa historia es pasada, ya fue...

*No.6
e----------------------------------------------------------
B----------------------------------------------------------
g----------------------------------------------------------
D15-17-18-16-15-20----16-15~-------------------------------
A------------------18--------------------------------------
E----------------------------------------------------------
Pero nos ha marcado, lo sé...

*No.7
e----------------------------------------------------------
B----------------------------------------------------------
g----------------------------------------------------------
D16-15-13----------17-16-14--------------------------------
A---------16-15-15----------17-15--------------------------
E----------------------------------------------------------
Da por seguro mi amor te lo juro...

*No.8
e----------------------------------------------------------
B----------------------------------------------------------
g----------------------------------------------------------
D18-16-15----17-17-19-17-16-17-----------------------------
A---------18-----------------------------------------------
E----------------------------------------------------------
Nadie va a amarte como yo lo haré...

e-------------------------------------15-15-15-------------
B-------------------------------------16-16-16-------------
g---15-14-----------------------------15-15-15-------------
D13----------17-16-----------------------------------------
A---------15-------18-17-16-17-----------------------------
E------------------------------17/19-----------------------
Estuve mal, se que lloraste por mi...

No.1 Me apabulle, y cobarde te menti...
No.3 Quiero aliviar, esta cruz que me cargue...
No.4 Al menos no pienses mal, solo me equivoque...
*No.1 Es que soy prisionero...
*No.2 Un tonto...
*No.3 Ha preferido invocar...
*No.4 Y suplicar de...
*No.5 Esa historia...
*No.6 Pero nos ha...
*No.7 Da por seguro...
*No.8 Nadie va...

(El no.2 no se repite, lo enumere unicamente para que sea mas facil)

e----------------------------------------------------------
B----------------------------------------------------------
g----------------------------------------------------------
D12-12-12-12-12-14----------12-----------------------------
A------------------14-12-14--------------------------------
E----------------------------------------------------------
Esque soy prisionero de un error (coros)

e----------------------------------------------------------
B----------------------------------------------------------
g----------------------------------------------------------
D12-12-12-12-12-14-11----13-11~----------------------------
A---------------------14-----------------------------------
E----------------------------------------------------------
Un tondo arrepentido que por hoy (coros)

e----------------------------------------------------------
B----------------------------------------------------------
g------------------------------------------15-16-----------
D16-15-13----------17-14-------18-16-15----------19~-------
A---------16-15-15-------17-15----------18-----------------
E----------------------------------------------------------
Ha preferido invocar al olvido...Y suplicarte todooo!!!

e----------------------------------------------------------
B----------------------------------------------------------
g----------------------------------------------------------
D----------------------------------------------------------
A12-12-12-12-12-14---------13--13-15-16-15-13-17~----------
E-----------------14-12-12-----------------------16-18-17~-
Esa historia es pasado ya fue..Pero nos ha marcado lo seee (coro)

*No.7 Da por seguro...
*No.8 Nadie va...

e--------------------------------------------------------------
B---------15-14------------------------------------------------
g16-14-13-------16-14------------17-16-14----16-17-19-17-16-17~
D---------------------18-17-16-15---------17-------------------
A--------------------------------------------------------------
E--------------------------------------------------------------
!Da por seguro mi amor te lo juro! nadie va a amarte como yo lo haré...

Pos ahi esta la cancion, ahi esta mi mail
por si les agrado la letra o por sino tambien,
escribanme para saber que tal me salio,
y aprovechando este espacio y que casi me grabe
la cancion, se la dedico a mi MARIA la bella...
Suggest correction
Give kudos to tab author, rate the tab!
1 2 3 4 5
comments
print report bad tab
guest
You may want to rate the tab now too:
select rating
Wanna post a correction for this tab? Suggest correction