Oops, an error
Loading. Please wait.

Oklahoma Sky Tab

16,334 views 33 this week
1 commentread comment
1 2 3 4 5
excellent!
x 9
add to favorites
launch autoscroll
font size
0
reset
how to read this tab
guitar tuner
Autoscroll
slow
fast
+/-
esc
set tempo
stop
Help us to improve Ultimate-Guitar.com Take our survey!
×
Difficulty
novice
Oklahoma Sky Chords
Miranda Lambert
No Capo

*The Spacing Gets Messed Up Everytime I try to post it, so it will be kind of off....


E/ ---------------------------------------------|
B/ ---------------------------------------------|
G/ ---------------------------0--------0--------| x2
D/ --0-0-0-0-2-2-2-2-4-4-4-4----4-2-0-----4-2-0-|
A/ ---------------------------------------------|
E/ ---------------------------------------------|


D
How long has it taken me to find you?
G			A
500 years, 500 thousand miles
G		A
It dont matter now
G		D
Loves always on time
C	G		A      D
Meet me underneath the Oklahoma sky

D
Lightning flashed, everything went silent
G                                A
A feather could have knocked me to the floor
G		A
Missing piece was found
G		D
I was finally alive
C	G		A		D
Meet me underneath the Oklahoma sky

E/ ---------------------------------------------|
B/ ---------------------------------------------|
G/ ---------------------------0--------0--------| x2
D/ --0-0-0-0-2-2-2-2-4-4-4-4----4-2-0-----4-2-0-|
A/ ---------------------------------------------|
E/ ---------------------------------------------|


D		G
With the speed of sound
A		G
Im homeward bound
A
Mmmhmmm

E/ ---------------------------------------------|
B/ ---------------------------------------------|
G/ ---------------------------0--------0--------| x2
D/ --0-0-0-0-2-2-2-2-4-4-4-4----4-2-0-----4-2-0-|
A/ ---------------------------------------------|
E/ ---------------------------------------------|



D
All our sorrows swept away forever
G				A
Each and every tear washed out to sea
A		G
There aint no goodbye
A		G
With your hand in mine
C	G	       A	D
Meet me underneath the Oklahoma sky

Oklahoma sky

E/ ---------------------------------------------|
B/ ---------------------------------------------|
G/ ---------------------------0--------0--------| x2
D/ --0-0-0-0-2-2-2-2-4-4-4-4----4-2-0-----4-2-0-|
A/ ---------------------------------------------|
E/ ---------------------------------------------|
Suggest correction
comments
print report bad tab
1 comment total.
0 reply
madilynn1221 21 wrote on July 25 2012, 06:35 pm

I just registered and posted this before I signed up to UG. If I need to fix anything just write on my profile.

guest
You may want to rate the tab now too:
select rating
Wanna post a correction for this tab? Suggest correction