Oops, an error
Loading. Please wait.

Over You Chords

version 3
version 3

Whole song

139,282 views 144 this week
5 commentsread comments
1 2 3 4 5
excellent!
x 85
add to favorites
launch autoscroll
font size
0
reset
transpose
0
reset
display chords
guitar tuner
Autoscroll
slow
fast
+/-
esc
set tempo
stop
Help us to improve Ultimate-Guitar.com Take our survey!
×
Capo
4th fret
[Intro]

e|--------------------------------------------------------|
B|--------------------------------------------------------|
G|------------0----2----7---------0----2------------------|
D|-------4-------------------4--------------2-------------| x2
A|--------------------------------------------------------|
E|--------------------------------------------------------|

D G  D  A  x2


[Verse]

D                    G      D           A
Weather man said its gonna snow
D              G            D               A
By now I should be used to the cold

D  G   D  A

D         G                        D       A
Mid-February shouldnt be so scary
          D        G
It was only December
D          A                Em               D          G
I still remember the presents, the tree, you and me


[Chorus]

 D                 A
But you went away
      Em
How dare you?
     G
I miss you
 D                     A
They say Ill be ok
                  Em          G                  D
But Im not going to ever get over you

D   G  D  A


[Verse]

D       G               D          A
Living alone here in this place
D            G             D         A
I think of you, and Im not afraid

D                   G         D                    A
Your favorite records make me feel better
    D                   G
Cause you sing along
       D         A
With every song
                 Em      D             G
I know you didnt mean to give them to me


[Chorus]

D             A
But you went away
     Em
How dare you?
  G
I miss you
D                      A
They say Ill be ok
                  Em           G                   D
But Im not going to ever get over you

D   G  D  A

         Em              A                        G
Its really sinks in, ya know, when I see it in stone

D                   A                Em
Cause you went away, how dare you?
G
I miss you
D                A
They say Ill be ok
              Em            G
But Im not going to ever get over you


[Outro]

e|--------------------------------------------------------|
B|--------------------------------------------------------|
G|------------0----2----7---------0----2------------------|
D|-------4-------------------4--------------2-------------|
A|--------------------------------------------------------|
E|--------------------------------------------------------| x3
Suggest correction
comments
print report bad tab
5 comments total. Showing first comments.
+1 reply
frankum 10 wrote on February 25 2013, 11:36 pm

Instead of 7 on the G, use 3 on the B... Nice work though!

0 reply
jesslp1 10 wrote on May 19 2013, 09:19 pm

----------------------------------------------------------------|l
----------------------------------------------------------------|l
------------0----2----7---------0----2--------------------------|l
-------4------------------0-4--------------2-----0--------l > X 2-|
----------------------------------------------------------------|l
----------------------------------------------------------------|

Yours sounds great! but I just think the open string just gives it that...I can't explain it..Just try it out!
(I think it sounds good but I don't know if i made it right...Sorry if the tab thing is made wrong D: )

0 reply
kygillen 67 wrote on October 4 2013, 02:16 pm

Some of your letters for chords are misplaced. On my first tab I wrote I had that problem because I used the tab key to space them out in a word document and then when I copied&pasted it into UG it got messed up. You can only used the space bar to space out your letters.

guest
You may want to rate the tab now too:
select rating
Wanna post a correction for this tab? Suggest correction