Oops, an error
Loading. Please wait.

The House That Built Me Tab

version 1
version 1

Intro

Whole song

Interactive

54,178 views 15 this week
no commentswrite comment
1 2 3 4 5
accurate
x 4
add to favorites
launch autoscroll
font size
0
reset
how to read this tab
guitar tuner
Autoscroll
slow
fast
+/-
esc
set tempo
stop
Help us to improve Ultimate-Guitar.com Take our survey!
×
Author
Capo
3rd fret
Tabbed By:abbott764
email:abbott764@gmail.com

Capo on 3

it's not exactly right but it sounds good

intro

e|-----------------------------0-2-3-2-0-----3-3-3-2-----0-0h2-0---------|
B|---------------3-----------3---3-3-3-2-3-2-0-0-0-3---3---3-----3-------|
G|-------------2-----------2-----2-2-2-2-----0-0-0-2-2-----2-------------|
D|---0---0---4-------0---0-----------------------------------------------|
A|-0---0---0-------0---0-------------------------------------------------|
E|-----------------------------------------------------------------------|

e|-0-----2---2---2---2-|
B|-2-3-2-3---3---3---3-|
G|-2-----2-2-2-2-2-2-2-|
D|---------------------|
A|---------------------|
E|---------------------|
Suggest correction
comments
print report bad tab
guest
You may want to rate the tab now too:
select rating
Please do not post tabs as comments. Select "correction" instead!