Oops, an error
Loading. Please wait.

The House That Built Me Chords

version 3
version 3

Whole song

Interactive

61,643 views 42 this week
no commentswrite comment
1 2 3 4 5
accurate
x 11
add to favorites
launch autoscroll
font size
0
reset
transpose
0
reset
display chords
guitar tuner
Tab Pro tools
  • play this tab
  • loop segment
  • change instrument
  • show fretboard
  • metronome
×
Best way to learn
"The House That Built Me"
Autoscroll
slow
fast
+/-
esc
set tempo
stop
Contributor
Difficulty
Capo
intermediate
3rd fret
Miranda Lambert - The House That Built Me

Standard Tuning.
Capo 3.

Chords and tab relative to capo.

I'm pretty sure this is 100% accurate.

Please rate and comment.

meganf98@yahoo.com


| h   hammer-on
| p   pull-off
| x   Mute note

e|---------------------------------------------0h2-2p0---------------------------------|
B|----------------3-----------------------3--------------3--------0h3------------------|
G|------------2--------2----2---------2----------------------2---------4--0--2---------|
D|---0--0--0---------0----0----0--0----------------------------------------------------|
A|-------------------------------------------------------------------------------------|
E|-------------------------------------------------------------------------------------|

e|---------------0h2--2p0-----------------2-------------------------------------------|
B|----------3---------------5--3--2-------3-------------------------------------------|
G|------2---------------------------------2-------------------------------------------|
D|---0------------------------------------x-------------------------------------------|
A|----------------------------------------x-------------------------------------------|
E|----------------------------------------x-------------------------------------------|


Just keep strumming D right into the first verse.

D
I know they say you cant go home again
F#
I just had to come back one last time
G
Maam I know you don’t know me from Adam
D                                         A
But these handprints on the front steps are mine


D
Up those stairs in that little back bedroom
F#
Is where I did my homework and I learned to play guitar
G
I bet you didn’t know under that live oak
D                              A
My favorite dog is buried in the yard


G                                        D
I thought if I could touch this place or feel it
Em                                   D
This brokenness inside me might start healing
G
Out here its like Im someone else
Bm                                  G
I thought that maybe I could find myself
D                                    G
If I could just come in I swear Ill leave
G                       D
Wont take nothing but a memory
D           A           D
From the house that built me


D
Mama cut out pictures of houses for years
F#
From Better Homes and Gardens magazine
G
Plans were drawn and concrete poured
G
Nail by nail and board by board
D                        A
Daddy gave life to mamas dream

G                                        D
I thought if I could touch this place or feel it
Em                                   D
This brokenness inside me might start healing
G
Out here its like Im someone else
Bm                                  G
I thought that maybe I could find myself
D                                    G
If I could just come in I swear Ill leave
G                       D
Won’t take nothing but a memory
D           A           D
From the house that built me


Em                                       D
You leave home and you move on and you do the best you can
Bm                               G           A
I got lost in this old world and forgot who I am


G                                        D
I thought if I could touch this place or feel it
Em                                   D
This brokenness inside me might start healing
G
Out here its like Im someone else
Bm                                  G
I thought that maybe I could find myself
D                                    G
If I could walk around I swear Ill leave
G                       D
Wont take nothing but a memory
D           A           G     Em   A   D
From the house that built me
comments
print report bad tab
I want to post or [tab]
guest
You may want to rate the tab now too:
select rating
Please do not post tabs as comments. Select "correction" instead!