Oops, an error
Loading. Please wait.

The Only One chords

418 views 6 this week
no commentswrite comment
1 2 3 4 5
2 more votes to show rating
add to favorites
×
Save as Personal and add changes to this tab that will be seen only by you. Learn more ›
×
You can save this tab as Personal to edit and correct it or add notes. All changes will be seen only by you. Learn more »
launch autoscroll
font size
0
reset
transpose
0
reset
simplify chords
display chords
guitar tuner
edit
Autoscroll
slow
fast
+/-
esc
set tempo
stop
Author
Difficulty
Strumming Is this strumming pattern correct? Yes No
Verses (adapted) 112 bpm
1
&
2
&
3
&
4
&
5
&
6
&
7
&
8
&
9
&
10
&
11
&
12
&
13
&
14
&
Listen
Some tab.

Verse 1:
                                                                  x4
e|-----------------|-----------------|-----------------|-----------||
B|-----------------|-----------------|-----------------|-----------||
G|-----------------|-----------------|-----------------|---------o-||
D|-2-2-2-3---3-----|-----0-0---------|-----------------|---------o-||
A|-3-3-3-5---5---3-|-3---1-1---------|-----------------|-----------||
E|---------------5-|-5---------------|-----------------|-----------||
   1 + 2 + 3 + 4 +   1 + 2 + 3 + 4 +   1 + 2 + 3 + 4 +   1 + 2 +


Verse 2:
                                                                  x3
e|-----------------|-----------------|-----------------|-----------||
B|-----------------|-----------------|-----------------|-----------||
G|-----------------|-----------------|-----------------|---------o-||
D|-2-2-2-3-3-3-3---|-----0-0-0-0-0-0-|-0-0-0-0-0-0-0-0-|-0-0-0-0-o-||
A|-3-3-3-5-5-5-5-3-|-3-3-1-1-1-1-1-1-|-1-1-1-1-1-1-1-1-|-1-1-1-1---||
E|---------------5-|-5-5-------------|-----------------|-----------||
   1 + 2 + 3 + 4 +   1 + 2 + 3 + 4 +   1 + 2 + 3 + 4 +   1 + 2 + 

e|-----------------|-----------------|-----------------|---------|
B|-----------------|-----------------|-----------------|---------|
G|-----------------|-----------------|-----------------|---------|
D|-2-2-2-3---3-----|-----0-0-0-0-0-0-|-0-0-0-0-0-0-0-0-|-0-0-0-0-|
A|-3-3-3-5---5---3-|-3-3-1-1-1-1-1-1-|-1-1-1-1-1-1-1-1-|-1-1-1-1-|
E|---------------5-|-5-5-------------|-----------------|---------|
   1 + 2 + 3 + 4 +   1 + 2 + 3 + 4 +   1 + 2 + 3 + 4 +   1 + 2 + 


ORDER: V1 C1 V2 C2 O


[VERSE 1]
C Dm F/A Bb          |                                | 1 + 2 + |
           No surprise I'd fall in love with you, babe
C Dm F/A Bb      |               | 1 + 2     + |
           You've showed me a lot  of  yours
C Dm F/A Bb        |                 | 1 + 2 + |
           Too much motion feeds fear
C Dm F/A Bb           |
           But you got me 

[CHORUS 1]
        | C           Dm             | Bb   Dm C  | | 1 + 2
And now I want you to say that I'm the on - ly one
+ | C          Dm             | Bb   Dm   C  | | 1
You lived your life before we'd even be - gun
+   2    + | C           Dm               | Bb  Dm   C   | | 1 +
And like a   shot in the back, hear all the whispers come
2 + | C          Dm          | Bb   Dm C  | | 1 + 2 |
Baby  see what I got; I am the on - ly one


[VERSE 2]                                 
C Dm F/A Bb     |                   | 1 + 2 + |
           Don't try to make me feel
C Dm F/A Bb |               | 1 + 2 + |
           I once had enough   of  you
C Dm F/A Bb       |                         | 1 + 2 + |
           I still throw me at words for you
C Dm F/A Bb           |                       | 1
           And you got me, you got me, you got...


[CHORUS 2]
+   2   + | C           Dm             | Bb   Dm C  | | 1 + 2
And now I   want you to say that I'm the on - ly one
+ | C          Dm             | Bb   Dm   C  | | 1
You lived your life before we'd even be - gun
+   2    + | C           Dm               | Bb  Dm   C   | | 1 +
And like a   shot in the back, hear all the whispers come
2 + | C          Dm          | Bb   Dm C  | | 1 + 2 |
Baby  see what I got; I am the on - ly one


[OUTRO]
C Dm | Bb  Dm C |         | 1    + 2  + |
 Oh,   you - ooh   I still  throw  me at
C         Dm      | Bb  Dm  C         |            | 1 + 2 + |
words for you, you,     you - ooh - ay  ooh-ooh ooh
C   Dm | Bb  Dm C   |    | 1 +
yeah,    hoo-ooh ooh, too
2 + | C          Dm          | Bb   Dm C |   |
Baby  see what I got; I am the on - ly    one

            
            
Suggest correction
Creating personal tab
Creating personal tab
You can edit any tab online and save it as your Personal.

You can edit, replace or remove any tab part or add personal notes – all changes will be seen only by you.

Personal tabs can be accessed anytime from any device, even offline.
Learn more »
Give kudos to tab author, rate the tab!
1 2 3 4 5
comments
print report bad tab
guest
You may want to rate the tab now too:
select rating
Wanna post a correction for this tab? Suggest correction