Oops, an error
Loading. Please wait.

A Carved Angel Bass Tab

69 views 1 this week
no commentswrite comment
1 2 3 4 5
3 more votes to show rating
add to favorites
launch autoscroll
font size
0
reset
guitar tuner
Autoscroll
slow
fast
+/-
esc
set tempo
stop
Help us to improve Ultimate-Guitar.com Take our survey!
×
Author
Difficulty
Tuning
novice
D A D G B E
Song:A Carved Angel
Band:Mirrors Show Lies
Bassist:Zach Mcdonald


   Intro         Main Riff/Verse        Interlude
G|------------|-------------------|-------------------|
D|------------|-------------------|-------------------|
A|-0~-0~-0~---|-0~-0~-8~-----10~--|------------0~-----|
D|----------X1|----------10~----X3|-7~--3~--5~------X1|

  Ending
G|-------------------------------------------------|
D|-------------------------------------------------|
A|-0~-8~-----10~-0~-0~-8~-----10~-14-15-14-0~------|
D|-------10~--------------10~----------------------|



Myspace.com/mirrorsshowlies
Suggest correction
Give kudos to tab author, rate the tab!
1 2 3 4 5
comments
print report bad tab
guest
You may want to rate the tab now too:
select rating
Wanna post a correction for this tab? Suggest correction