Oops, an error
Loading. Please wait.

Chrysanthemums Between Us Bass Tab

47 views 1 this week
no commentswrite comment
1 2 3 4 5
please rate
add to favorites
launch autoscroll
font size
0
reset
guitar tuner
Autoscroll
slow
fast
+/-
esc
set tempo
stop
Help us to improve Ultimate-Guitar.com Take our survey!
×
Author
Difficulty
Tuning
intermediate
C G C F A D
Band:Mirrors Show Lies
Song:Chrysanthemums Between Us
Tunning:Drop C

Intro
F|----------------------------------------------------------------|
C|----------------------------------------------------------------|
G|----------------------------------------------------------------|
C|-4~--0~--7~--2~--4444444444444-00000000-77777777-222222222~-----|

Verse
F|-------------------------------------------------------4----4----4-|
C|---------------5----------------7------------------------22---22---|
G|-----------5h7--------------5h7------------------------------------|X4
C|-444444444--------000000000--------777777777777-222222-------------|

Chorus
F|------------------------------|
C|------------------------------|
G|--------555555--------777777--|X4
C|-444444--------777777---------|

Verse
F|-------------------------------------------------------4----4----4-|
C|---------------5----------------7------------------------22---22---|
G|-----------5h7--------------5h7------------------------------------|X4
C|-444444444--------000000000--------777777777777-222222-------------|

Chorus
F|------------------------------|
C|------------------------------|
G|--------555555--------777777--|X4
C|-444444--------777777---------|

F|--------------------7-9---------------------7-9-----------------|
C|----------------7h9---------------------7h9---------------------|
G|----5~----7~7h9-------------5~----7~7h9-------------------------|
C|-4~----7~----------------4~----7~-------------------------------|

Chorus
F|------------------------------|
C|------------------------------|
G|--------555555--------777777--|X4
C|-444444--------777777---------|

4th time hold the 4th fret to end
Suggest correction
What's this?
You can suggest a correction to this tab. Community and Mods will review your correction and vote to approve or reject it.
comments
We did not receive enough feedback on this tab! Please rate:
print report bad tab
1 2 3 4 5
guest
You may want to rate the tab now too:
select rating
Please do not post tabs as comments. Select "correction" instead!