Oops, an error
Loading. Please wait.

12 Bar Blues Tab

version 3
version 3

Whole song

by Misc
15,511 views 9 this week
2 commentsread comments
1 2 3 4 5
accurate
x 3
add to favorites
launch autoscroll
font size
0
reset
how to read this tab
guitar tuner
Autoscroll
slow
fast
+/-
esc
set tempo
stop
Help us to improve Ultimate-Guitar.com Take our survey!
×
Author
Difficulty
novice
e|---------------------5---------------------5-------------|
B|---------------------5---------------------5-------------|
G|---------------------5---------------------5-------------|x2
D|--------------5h7-------------------5h7------------------|
A|--------5h7-------------------5h7------------------------|
E|----5---------------------5------------------------------|

e|------------------------10------------------------10-----|
B|------------------------10------------------------10-----|
G|------------------------10------------------------10-----|x2
D|----------------10h12----------------------10h12---------|
A|--------10h12-----------------------10h12----------------|
E|---10--------------------------10------------------------|

e|---------------------5---------------------5-------------|
B|---------------------5---------------------5-------------|
G|---------------------5---------------------5-------------|
D|--------------5h7-------------------5h7------------------|
A|--------5h7-------------------5h7------------------------|
E|----5---------------------5------------------------------|

e|----------------------12-----------------------10--------|
B|----------------------12-----------------------10--------|
G|----------------------12-----------------------10--------|
D|---------------12h14---------------------10h12-----------|
A|--------12h14---------------------10h12------------------|
E|---12---------------------10h2---------------------------|

e|---------------------5---------------------5-------------|
B|---------------------5---------------------5-------------|
G|---------------------5---------------------5-------------|
D|--------------5h7-------------------5h7------------------|
A|--------5h7-------------------5h7------------------------|
E|----5---------------------5------------------------------|

e|----------------------12-----------------------10--------|
B|----------------------12-----------------------10--------|
G|----------------------12-----------------------10--------|
D|---------------12h14---------------------10h12-----------|
A|--------12h14---------------------10h12------------------|
E|---12---------------------10h2---------------------------|

e|---------------------5---------------------5-------------|
B|---------------------5---------------------5-------------|
G|---------------------5---------------------5-------------|
D|--------------5h7-------------------5h7------------------|
A|--------5h7-------------------5h7------------------------|
E|----5---------------------5------------------------------|

That's it, I hope you have fun playing this as much as I had!

| /  slide up
| \  slide down
| h  hammer-on
| p  pull-off
| ~  vibrato
| +  harmonic
| x  Mute note
=============================================================
Suggest correction
Give kudos to tab author, rate the tab!
1 2 3 4 5
comments
print report bad tab
2 comments total.
-2 reply
elementcruza556 10 wrote on December 6 2007, 06:02 pm

this sucks!!!!!!!!!!!

+1 reply
A-hopes 41 wrote on April 26 2008, 11:14 am

nah i like it

guest
You may want to rate the tab now too:
select rating
Please do not post tabs as comments. Select "correction" instead!